Oops, an error
Loading. Please wait.

Knife Called Lust Tab

3,791 views 3 this week
no commentswrite comment
1 2 3 4 5
3 more votes to show rating
add to favorites
launch autoscroll
font size
0
reset
how to read this tab
guitar tuner
Autoscroll
slow
fast
+/-
esc
set tempo
stop
Help us to improve Ultimate-Guitar.com Take our survey!
×
Author
Difficulty
Tuning
intermediate
C G C F A D
----------------------------------------------------------------------------
                             Knife Called Lust
----------------------------------------------------------------------------

Hollywood Undead
Drop C

Some of these part aren't actually played on the guitar during the song but it's the
chords and everything

D---------------------------------------------------------------|
A--5~------------------------------8~--------------12~----------|
F--X-------------------------------X---------------X------------|
C--2~------------------------------5~--------------9~-----------|
G---------------------------------------------------------------|
C---------------------------------------------------------------|

D----------------------------------------------------------------|
A----------------------------------------------------------------|
F--5-5-----5-5-----5-5-----5-5-----8-8-----8-8-----12-12-----7-7-|
C--4-4-----4-4-----4-4-----4-4-----7-7-----7-7-----11-11-----6-6-|
G--2-2-----2-2-----2-2-----2-2-----5-5-----5-5-----9--9------4-4-|

Both parts are played at the same time throughout the entire song except the bridge

D---------------------------------------------------------12----|
A---------------------------------------------------------10b---|
F---------------------------------------------------------------|   X3
C--2-222-2-------------------------2-222-2---------222-2-2------|
G--2-222-2-------------------------2-222-2---------222-2-2------|
C--2-222-2-------------------------2-222-2---------222-2-2------|
   . ... .                         . ... .         ... . .

On the 4th time instead of doing the bend on the 10th fret at the end this is played as
leads into the chorus (this only happens during the first verse)

D-------------------|
A-------------------|
F-------------------|
C--7-7-5-5-3-3-2-2--|
G--5-5-3-3-1-1-0-0--|
C-------------------|

Im sti;l a little unsure about the bridge, but im if you listen real close im pretty 
this is it...

D---------------------------------------------------------------|
A---------------------------------------------------------------|
F---------------------------------------------------------------|   X4
C---------------------------------------------------------------|
G-----------------55555555444444442222222200000000--------------|
C--22222222--2222-----------------------------------------------|
   ........  .... ................................

D---------------------------------------------------------------|
A---------------------------------------------------------------|
F---------------------------------------------------------------|   X4
C---------------------------------------------------------------|
G---------------------------------------------------------------|
C--2---2---2--222-----------------------------------------------|
   .   .   .  ...

In the backroung this plays during the second part of the bridge...

D---------------------------------------------------------------|
A---------------------------------------------------------------|
F--9-9-9-9-9-9-9-9-9-9-9-9-9-9-9-9-9-9-9------------------------|   X2
C---------------------------------------------------------------|
G---------------------------------------------------------------|
C---------------------------------------------------------------|

Outro starts by replaying intro but fades in this acoustic riff...

D---------------------------------------------------------------|
A---------------------------------------------------------------|
F---------------------------------------------------------------|
C--2-0-4-5-2-0-4-5-2-0-4-5-2-0-4-5------------------------------|
G---------------------------------------------------------------|
C---------------------------------------------------------------|
Suggest correction
Give kudos to tab author, rate the tab!
1 2 3 4 5
comments
print report bad tab
guest
You may want to rate the tab now too:
select rating
Wanna post a correction for this tab? Suggest correction