Oops, an error
Loading. Please wait.

Levitate Bass Tab

version 2
version 2

Whole song

Interactive

2,481 views 12 this week
1 commentread comment
1 2 3 4 5
excellent!
x 5
add to favorites
launch autoscroll
font size
0
reset
guitar tuner
Tab Pro tools
  • play this tab
  • loop segment
  • change instrument
  • show fretboard
  • metronome
Autoscroll
slow
fast
+/-
esc
set tempo
stop
Contributor
-----------------------------------------------------------------------------
			     Levitate - Hollywood Undead
-----------------------------------------------------------------------------

Tabbed By : adyingsense
e-mail: glasser.michael@gmail.com
http://youtu.be/UfA8Y4QLzT4

Tuning: E Standard

There isn't a lot of bass in the song, but either way it sounds great on the bass. This
is the way that I play it in my band.

Intro/Main Riff

First Time
G|-----|
D|--5--|
A|-----|
E|-----|

Second Time
G|-------------|
D|-5--1--3-----|
A|----------3--|
E|-------------|

Verse Part 1 (play as eighth notes)
G|-----------------------------------|
D|--5-5-5-5-1-1-1-1-3-3-3-3----------|
A|--------------------------3-3-3-3--|
E|-----------------------------------|

Verse Part 2 (play as eighth notes)
G|----------3-3-3-3-2-2-2-2-------------------------------------------------|
D|--5-5-5-5-----------------5-5-5-5-----------------------------------------|
A|--------------------------------------------------------------------------|
E|--------------------------------------------------------------------------|

Chorus (play as quarter notes "another option that works well is galloping)
G|-----------------------------------|
D|------------------3-3-3-3----------|
A|----------1-1-1-1---------3-3-3-3--|
E|--3-3-3-3--------------------------|

Bridge on 1st and 3rd line. Hold entire guitar riff twice
G|-----|
D|--5--|
A|-----|
E|-----|

Bridge on lines 5-7
G|-------------------|
D|-------------------|
A|-------------------|
E|--3-3-3-3-3-3-3-3--|

Bridge on the last line, line 8
G|-------------------|
D|--5-5-5-5-5-5-5-5--|
A|-------------------|
E|-------------------|

When the chorus comes up, play the first two lines as half notes and then go back to the 
normal rhythm for the last two lines

Outro
G|----------------|
D|-5--1--3--------|
A|---------3-3-3--|
E|----------------|

Song Order

Intro x2
Verse Part 1 x4
Verse Part 2 x4
Chorus x4
Fill (Intro) x2
Verse Part 1 x4
Verse Part 2 x4
Chorus x4
Bridge x8
Chorus x4
Outro (Main Riff) x2
===============================================================================
comments
print report bad tab
1 comment total.
0 reply
markuscovarrubias88 wrote on January 20 2016, 11:33 pm

this is awesome

I want to post or [tab]
guest
You may want to rate the tab now too:
select rating
Please do not post tabs as comments. Select "correction" instead!