Oops, an error
Loading. Please wait.

Levitate Bass Tab

version 3
version 3

Whole song

Interactive

227 views 1 this week
no commentswrite comment
1 2 3 4 5
please rate
add to favorites
launch autoscroll
font size
0
reset
guitar tuner
Tab Pro tools
  • play this tab
  • loop segment
  • change instrument
  • show fretboard
  • metronome
Autoscroll
slow
fast
+/-
esc
set tempo
stop
Contributor
Difficulty
novice
This is not exactly how the song goes, but it is how I play it. You can check my 
cover here: http://youtu.be/rjRiiXWwbG8
Tuning: EADG


Verse 1
G||-------|-------|-------|-------||---------------------------|--------------------------|
D||-------|-------|-------|-------||*--------------------------|--------------------------|
A||-------|-------|-------|-------||*--------------6--6--6--6--|--8--8--8--8--------------|
E||-------|-------|-------|-------||---3--3--3--3--------------|--------------8--8--8--8--|

|--------------------------|--------------------------|------------------------------|
|--------------------------|--------------------------|------------------------------|
|--------------6--6--6--6--|--8--8--8--8--------------|--10--10--10--10--6--6--6--6--|
|--3--3--3--3--------------|--------------8--8--8--8--|------------------------------|

|--------------------------|--------------------------|---------------------------||
|--------------------------|--------------------------|--------------------------*||
|--8--8--8--8--------------|--------------6--6--6--6--|--8--8--8--8--------------*||
|--------------8--8--8--8--|--3--3--3--3--------------|--------------8--8--8--8---||


Chorus
||---------------------------|--------------------------|--------------------------|
||*--------------------------|--------------------------|--------------------------|
||*--------------------------|--6--6--6--6--6--6--6--6--|--8--8--8--8--8--8--8--8--|
||---3--3--3--3--3--3--3--3--|--------------------------|--------------------------|
                              [Second time]
|---------------------------||--------------------------||---------------------------|
|--------------------------*||--------------------------||*-----5-----5-----5-----5--|
|--------------------------*||--3--3--3--3--3--5--3-----||*--------------------------|
|--8--8--8--8--8--8--8--8---||-----------------------5--||---3-----3-----3-----3-----|
 
|-----8-----8-----8-----8--|-----10-----10-----10-----10--|-------------------------------||
|--------------------------|------------------------------|-----10-----10-----10-----10--*||
|--6-----6-----6-----6-----|--8------8------8------8------|------------------------------*||
|--------------------------|------------------------------|--8------8------8------8-------||


Verse 2
|-------------------|-------------------|---------------------|-------------------|
|-------------------|-------------------|---------------------|-------------------|
|-------------------|-------------------|-/10-----------------|-L-----------------|
|-3-----------------|-L-----------------|---------------------|-------------------|
 
||---------------------------|--------------------------|---------------------------|
||*--------------------------|--------------------------|---------------------------|
||*--------------6--6--6--6--|--8--8--8--8--------------|--------------6--6--6--6--|
||---3--3--3--3--------------|--------------8--8--8--8--|--3--3--3--3---------------|
  
|--------------------------|------------------------------|---------------------------|
|--------------------------|------------------------------|---------------------------|
|--8--8--8--8--------------|--10--10--10--10--6--6--6--6--|--8--8--8--8---------------|
|--------------8--8--8--8--|------------------------------|--------------8--8--8--8--|

|--------------------------|---------------------------||
|--------------------------|--------------------------*||
|--------------6--6--6--6--|--8--8--8--8--------------*||
|--3--3--3--3--------------|--------------8--8--8--8---||


Chorus 
||---------------------------|--------------------------|--------------------------|
||*--------------------------|--------------------------|--------------------------|
||*--------------------------|--6--6--6--6--6--6--6--6--|--8--8--8--8--8--8--8--8--|
||---3--3--3--3--3--3--3--3--|--------------------------|--------------------------|
                              [Second Time]
|---------------------------||--------------------------||---------------------------|
|--------------------------*||--------------------------||*-----5-----5-----5-----5--|
|--------------------------*||--3--3--3--3--3--5--3-----||*--------------------------|
|--8--8--8--8--8--8--8--8---||-----------------------5--||---3-----3-----3-----3-----|
 
|-----8-----8-----8-----8--|-----10-----10-----10-----10--|-------------------------------||
|--------------------------|------------------------------|-----10-----10-----10-----10--*||
|--6-----6-----6-----6-----|--8------8------8------8------|------------------------------*||
|--------------------------|------------------------------|--8------8------8------8-------||


Verse 3
|-------------------|-------------------|-------------------|-------------------|
|-------------------|-------------------|-------------------|-------------------|
|-------------------|-------------------|-------------------|-------------------|
|--3----------------|--L----------------|--L----------------|--L----------------|

|---------------------|-------------------|-------------------|----------------------|
|---------------------|-------------------|-------------------|----------------------|
|--/10----------------|--L----------------|--L----------------|--L------------10\----|
|---------------------|-------------------|-------------------|----------------------|

|---------------------------|--------------------------|-------------------------|
|*--------------------------|--------------------------|-------------------------|
|*--------------------------|--------------------------|-------------------------|
|---3-----3-----3-----3-----|--3-----3-----3-----3-----|--3-----3-----3----3-----|
                              [Second Time]
|---------------------------||--------------------------|---------------------------------|
|--------------------------*||--------------------------|---------------------------------|
|--------------------------*||--------------------------|--10--10--10--10--10--10--10\----|
|--3-----3-----3-----3------||--3-----3-----3-----3/----|---------------------------------|


Final Chorus 
|-----------------------|----------------------|----------------------|
|*----------------------|----------------------|----------------------|
|*----------------------|--6------6--6------6--|--8------8--8------8--|
|---3------3--3------3--|----------------------|----------------------|
                          [Second Time]
|-----------------------||--------------------------||---------------------------|
|----------------------*||--------------------------||*-----5-----5-----5-----5--|
|----------------------*||--3--3--3--3--3--5--3-----||*--------------------------|
|--8------8--8------8---||-----------------------5--||---3-----3-----3-----3-----|

|-----8-----8-----8-----8--|-----10-----10-----10-----10--|-------------------------------||
|--------------------------|------------------------------|-----10-----10-----10-----10--*||
|--6-----6-----6-----6-----|--8------8------8------8------|------------------------------*||
|--------------------------|------------------------------|--8------8------8------8-------||


Outro
|--------------------------|--------------------------|
|--------------------------|--------------------------|
|--------------6--6--6--6--|--8--8--8--8--------------|
|--3--3--3--3--------------|--------------8--8--8--8--|

|--------------------------|---------------------------||
|--------------------------|---------------------------||
|--------------6--6--6--6--|--8--8--8-8-8--------------||
|--3--3--3--3--------------|--------------8--8--8-8----||
comments
We did not receive enough feedback on this tab! Please rate:
print report bad tab
1 2 3 4 5
I want to post or [tab]
guest
You may want to rate the tab now too:
select rating
Please do not post tabs as comments. Select "correction" instead!