Oops, an error
Loading. Please wait.

Outside Tab

version 1
version 1

Whole song

Interactive

25,691 views 90 this week
1 commentread comment
1 2 3 4 5
x 15
add to favorites
launch autoscroll
font size
0
reset
how to read this tab
guitar tuner
Autoscroll
slow
fast
+/-
esc
set tempo
stop
Help us to improve Ultimate-Guitar.com Take our survey!
×
Author
Difficulty
Tuning
novice
D A D G B E
[Intro 1]

E|--------------------------------------------------------------|
B|--------------------------------------------------------------|
G|--------------------------------------------------------------|
D|--------------------8----8-8----8-7---7-7---7-7---7-7-7-7-----|
A|--10----10-10----10---10-----10-----8-----8-----8-------------|
D|-----12-------12----------------------------------------------|(x5)


[Intro 2]

E|------------------------------------------------------|
B|------------------------------------------------------|
G|------------------------------------------------------|
D|--5~---5~--8--3~---3~--0~-----------------------------|
A|--5~---5~--8--3~---3~--0~-----------------------------|
D|--5~---5~--8--3~---3~--0~-----------------------------|


[Verse]

Palm Mute All Of This:

E|---------------------------------------------------------|
B|---------------------------------------------------------|
G|---------------------------------------------------------|
D|--5-------8------3-----0---------------------------------|
A|--5-x28---8-x4---3-x24-0-x8------------------------------|
D|--5-------8------3-----0---------------------------------|


[Chorus]

E|------------------------------------------------------|
B|------------------------------------------------------|
G|------------------------------------------------------|
D|--5~---5~--8--3~---3~--0~-----------------------------|
A|--5~---5~--8--3~---3~--0~-----------------------------|
D|--5~---5~--8--3~---3~--0~-----------------------------|


[Outro]

E|--------------------------------------------------------------|
B|--------------------------------------------------------------|
G|--------------------------------------------------------------|
D|--------------------8----8-8----8-7---7-7---7-7---7-7-7-7-----|
A|--10----10-10----10---10-----10-----8-----8-----8-------------|
D|-----12-------12----------------------------------------------|
Suggest correction
comments
print report bad tab
1 comment total.
0 reply
kjeld.schmidt.5 10 May 27, 2015 09:08 AM

Cool Tab, but I think the DADGBE tunig isn't consistent with the Inro 1 riff - that sounds correct when played with standard tuning.

guest
You may want to rate the tab now too:
select rating
Wanna post a correction for this tab? Suggest correction