Oops, an error
Loading. Please wait.

Pour Me Tab

4,368 views 1 this week
no commentswrite comment
1 2 3 4 5
please rate
add to favorites
launch autoscroll
font size
0
reset
how to read this tab
guitar tuner
Autoscroll
slow
fast
+/-
esc
set tempo
stop
Help us to improve Ultimate-Guitar.com Take our survey!
×
Author
Difficulty
novice
-------------------------------------------------------------------------------
                             POUR ME - Hollywood Undead
-------------------------------------------------------------------------------
Tabbed by: Syn_August

Tuning: Standard (eADGBE)
In the Key of: C Major

Album: American Tragedy
Artist: Hollywood Undead


I tabbed this song into two guitar parts: one for the chords (guitar 1), and one for the 
melody/tune (guitar 2). In parts where only guitar 2 is played, the chords for guitar 1 
are placed above the tab. Enjoy, and please notify me if you spot any mistakes.

(**Note: For lyrics, each verse is separated into three parts (a, b, and c). Only one 
section - Verse one, part a - is shown to show you how the tab correlates with the lyrics)





| INTRO |


Guitar 1:

e|---12-12-12-12---12-12-12-12---15-15-15-15---13-13-13-13---|
B|-----------------------------------------------------------|
G|-----------------------------------------------------------|
D|-----------------------------------------------------------|
A|-----------------------------------------------------------|
E|-----------------------------------------------------------|

Guitar 2:

e|-----------------------------------------------------------|
B|-------------1~------------------------0--------------1~---|
G|--------------------------2~-------------------------------|
D|-----------------------------------------------------------|
A|-----------------------------------------------------------|
E|-----------------------------------------------------------|





| CHORUS |


    C            Em
e|---------------------------------------------|
B|--1-1-1-1-1-1-1-1-3---0-0-0-0-0-0-0-1--------|
G|---------------------------------------------|
D|---------------------------------------------|
A|---------------------------------------------|
E|---------------------------------------------|

   Pour me, pour me, pour me another

    Am                  F
e|---------------------------------------------|
B|------------------0-------1-1-1-1-1-1-1-1----|
G|--2-2-2-2-2-2-2-2----------------------------|
D|---------------------------------------------|
A|---------------------------------------------|
E|---------------------------------------------|

    It holds me, holds me, like no other

    C
e|---------------------------------------------|
B|----1----1----1----1----1----1-----1----3----|
G|---------------------------------------------|
D|---------------------------------------------|
A|---------------------------------------------|
E|---------------------------------------------|

   One more drink, then I swear that I'm going home

   Em
e|---------------------------------------------|
B|----0----0----0----0----0----0-----0----1----|
G|---------------------------------------------|
D|---------------------------------------------|
A|---------------------------------------------|
E|---------------------------------------------|

   Truth is that I don't really have a place to go

       Am           F
e|---------------------------------------------|
B|------------------0----1-1-1-1-1-1-1-1-1-1---|
G|----2-2-2-2-2-2-2----------------------------|
D|---------------------------------------------|
A|---------------------------------------------|
E|---------------------------------------------|

   So pour me, pour me, pour me another





| VERSE |

(**For part c, leave out the ending transition and strum the Am chord one more time, 
with something like a whammy bar to create the effect)


Guitar 1:

       C
e|----0-0--------------------|
B|----1-1--------------------|
G|----0-0--------------------|
D|----2-2--------------------|
A|----3-3--------------------|
E|---------------------------|

 a) I wake up right about the mid-afternoon

            Em
e|----------0-0--------------|
B|----------0-0--------------|
G|----------0-0--------------|
D|----------2-2--------------|
A|----------2-2--------------|
E|----------0-0--------------|

 a) With the sun in the sky, the night's coming soon

      Am
e|----0-0---------------|
B|----1-1---------------|
G|----2-2---------------|
D|----2-2---------------|
A|----0-0---------------|
E|----------------------|

 a) And I walk to the mirror just to fix myself


      Am                            (transition)
e|----0-0-----------------------|-----------0------|
B|----1-1-----------------------|-----------1------|
G|----2-2-----------------------|-------(2)-2------|
D|----2-2-----------------------|-----------2------|
A|----0-0-----------------------|-----------0-2----|
E|------------------------------|------------------|

 a) Yeah, life gets harder when you love nothing else



Guitar 2:


(**Just play the riff from the chorus)

e|---------------------------------------------|
B|--1-1-1-1-1-1-1-1-3---0-0-0-0-0-0-0-1--------|
G|---------------------------------------------|
D|---------------------------------------------|
A|---------------------------------------------|
E|---------------------------------------------|

e|---------------------------------------------|
B|------------------0-------1-1-1-1-1-1-1-1----|
G|--2-2-2-2-2-2-2-2----------------------------|
D|---------------------------------------------|
A|---------------------------------------------|
E|---------------------------------------------|





| BRIDGE |


    (leading out from the previous chorus)
e|------------------------------------------|
B|-----------1-1-1-1-1-1-1-1-1-1------------|
G|------------------------------------------|
D|------------------------------------------|
A|------------------------------------------|
E|------------------------------------------|


      F                            G          -
e|----1----------------------------3--------| |
B|----1-(1)------------------------3-(3)----| |
G|----2----------------------------4--------| |
D|----3----------------------------5--------| |
A|----3----------------------------5--------| |
E|----1----------------------------3--------| |
                                              |
 1) Time just seems to go, on and on          |
 2) Life inside a bottle, all along           | x2
                                              |
            G              Am                 |
e|----------3--------------0-----(0)--------| |
B|----------3----(3)-------1--(1)-----------| |
G|----------4--(4)---------2----------------| |
D|----------5--------------2----------------| |
A|----------5--------------0----------------| |
E|----------3-------------------------------| |
                                              |
 1) On and on, and on and on                  |
 2) All along, the bottle's gone              -



       F                                          -
e|-----1-----------------------------|            |
B|-----1-----------------------------|            |
G|-----2-----------------------------|            |
D|-----3-----------------------------|            |
A|-----3-----------------------------|            |
E|-----1-----------------------------|            |
                                                  |
 1) I'm not just a man with these broken dreams   |
 2) What's left inside a bottle if                |
 3) One more song and I'm finally free            |
                                                  | x3
      Am                                          |
e|----0-----------------------------|             |
B|----1-----------------------------|             |
G|----2-----------------------------|             |
D|----2-----------------------------|             |
A|----0-----------------------------|             |
E|----------------------------------|             |
                                                  |
 1) Even I can go to heaven if I part the sea     |
 2) It's gone?                                    |
 3) I'll meet you here in heaven, between the sea |
                                                  -


              G
e|------------3---------------------|
B|------------3---------------------|
G|------------4---------------------|
D|------------5---------------------|
A|------------5---------------------|
E|------------3---------------------|

  'Cause I'm not just a man with these broken dreams

                 G
e|----------------------------------|
B|----------------------------------|
G|----------------------------------|
D|--------------(5)-----------------|
A|--------------(5)-----------------|
E|--------------(3)-----------------|

   That even I can go to heaven if I part the sea, so





| OUTRO |


(**End the song on an extra F chord at "pour me another")

    C                        Em                  -
e|---------------------------------------------| |
B|--1-1-1-1-1-1-1-1-3---0-0-0-0-0-0-0-1--------| |
G|---------------------------------------------| |
D|---------------------------------------------| |
A|---------------------------------------------| |
E|---------------------------------------------| |
                                                 |
    Pour me,            pour me                  | x2
                                                 |
    Am            F                              |
e|---------------------------------------------| |
B|------------------0-------1-1-1-1-1-1-1-1----| |
G|--2-2-2-2-2-2-2-2----------------------------| |
D|---------------------------------------------| |
A|---------------------------------------------| |
E|---------------------------------------------| |
                                                 |
    Pour me, pour me, pour me another            -





Song Order:

Intro (0:00)
Chorus (0:09)
Verse 1 (0:33)
Chorus (1:05)
Verse 2 (1:29)
Chorus (2:01)
Bridge (2:26)
Chorus (3:09)
Outro  (3:33)



Additional Lyrics:


Verse 1 -


b) So I pick my pills from the counter drawer
   Pick my self esteem up off the fuckin' floor
   I guess I'm a man of no recourse
   'Cause I cracked another bottle, got no remorse
c) And I'll say a little prayer for the child in me
   I swear I used to be what I truly believed
   That I'm not just a man with these broken dreams
   That even I can go to heaven if I part the sea, so



Verse 2 -


a) People get sick and then watch you bleed
   When you fall from the top, boy you better believe
   At the bottom they got just, yeah, just what you need
   But at the bottom you can't swim, 'cause you drank up the sea
b) When we stop and we look up to the sky
   They don't ask any questions, they ask us "Why?"
   Don't have any answers, don't know what to say
   Our knees are getting tired, too tired to pray
c) That's when we laid down, end of the road
   We all seem to walk and I guess I walked it alone
   And I'm not just a man with these broken dreams
   Even I can go to heaven if I part the sea, so



************************************

| x2   repeat
| ~   vibrato
| +   harmonic
|(3)  a "ghost note" (quiet/barely audible note)

************************************
Suggest correction
Give kudos to tab author, rate the tab!
1 2 3 4 5
comments
print report bad tab
guest
You may want to rate the tab now too:
select rating
Please do not post tabs as comments. Select "correction" instead!