Oops, an error
Loading. Please wait.

Rain Tab

version 1
version 1
9,327 views 12 this week
5 commentsread comments
1 2 3 4 5
x 10
add to favorites
launch autoscroll
font size
0
reset
how to read this tab
guitar tuner
Autoscroll
slow
fast
+/-
esc
set tempo
stop
Help us to improve Ultimate-Guitar.com Take our survey!
×
Author
Difficulty
novice
-------------------------------------------------------------------------------
                             Rain(Intro) - Hollywood Undead
-------------------------------------------------------------------------------
Tabbed by: jhansen
E-mail: jakehansen521@yahoo.com

Tuning:Standard

     This is my first tab so it might be a little off.  
     I decided to try and it out and see where it goes.  
     Let me know if you have any corrections or find 
     any mistakes.  


e|--3---------3-----3------------3------2-----------2----2-----7-------------|
B|------------------------------------------0--------------------------------|
G|-----0----------------0-----------------------0----------------------------|
D|--------0-----------------0------------------------------------------------|
A|---------------------------------------------------------------------------|
E|--0---------------0-------------------0----------------0-----0-------------|

e|--0--------0----0--------0----2---------2----2---------2-------------------|
B|---------------------------------------------------------------------------|
G|-----0-------------0--------------0--------------0-------------------------|
D|--------0-------------0--------------0--------------0----------------------|
A|---------------------------------------------------------------------------|
E|--0-------------0-------------0--------------0-----------------------------|
Suggest correction
comments
print report bad tab
5 comments total. Showing first comments.
0 reply
Roqua_99 43 Jan 26, 2013 09:25 PM

It's pretty clean! I've been waiting for this to get tabbed for a while! Glad to see this is finally here, it's an amazing guitar lick.

Thanks heaps!

+3 reply
Gigzi10 31 Feb 19, 2013 05:38 PM

How about this?

e|--3---------3--------3----------3-------2---------2---------2-------7-|
B|----------------------------------------------------------------------|
G|----------0-------0---------0-------0---------0--------0--------------|
D|--2----2--------2----2----2-------2-----0---0-------0-------0-------5-|
A|----------------------------------------------------------------------|
E|----------------------------------------------------------------------|

e|--0---------0-------0--------0-------2---------2---------2------------|
B|----------------------------------------------------------------------|
G|--------0-------0--------0-------0---------0--------0-----------------|
D|-------------------------------------0---0-------0-------0------------|
A|--3---3-------3-----3--3-------3--------------------------------------|
E|----------------------------------------------------------------------|

0 reply
Dylano08 31 Feb 20, 2013 09:06 PM

Gigzi, Doesnt sound as good to me ill try it a few more time but so far it sounds awful but good attempt anyways

guest
You may want to rate the tab now too:
select rating
Wanna post a correction for this tab? Suggest correction