Oops, an error
Loading. Please wait.

Rain Tab

version 1
version 1
6,326 views 93 this week
1 commentread comment
1 2 3 4 5
accurate
x 6
add to favorites
launch autoscroll
font size
0
reset
how to read this tab
guitar tuner
Tab Pro tools
  • play this tab
  • loop segment
  • change instrument
  • show fretboard
  • metronome
Autoscroll
slow
fast
+/-
esc
set tempo
stop
Contributor
Difficulty
intermediate
This tab is for the intro, verses, that part where Danny does his sexy thing after 
a few of the refrains, and the very end. It just repeats through those parts.

e|--3---------3--------3----------3-------2---------2---------2-------7-----|
B|--------------------------------------------------------------------------|
G|----------0-------0---------0-------0---------0--------0------------------|
D|--2----2--------2----2----2-------2-----0---0-------0-------0-------5-----|
A|--------------------------------------------------------------------------|
E|--------------------------------------------------------------------------|

e|--0---------0-------0--------0-------2---------2---------2----------------|
B|--------------------------------------------------------------------------|
G|--------0-------0--------0-------0---------0--------0---------------------|
D|-------------------------------------0---0-------0-------0----------------|
A|--3---3-------3-----3--3-------3------------------------------------------|
E|--------------------------------------------------------------------------|


Refrain(chords)

Em               D             Bm               C
I don't mind, no I don't mind, I don't mind the rain.

    Em                D                Bm              C
The simple things and subtleties, they always stay the same.

Em                 D                 G                C
I don't mind, that I don't mind, no, I don't mind the rain.

       Em                D               Bm           C          Em
Like a widow's heart, we fall apart, but never fade away, fade away.
comments
print report bad tab
1 comment total.
0 reply
Dylano08 wrote on February 20 2013, 09:10 pm

Mehh, Decent sounds similar not quite it

I want to post or [tab]
guest
You may want to rate the tab now too:
select rating
Please do not post tabs as comments. Select "correction" instead!