Oops, an error
Loading. Please wait.

Rain tab

version 5
version 5

Whole song

208 views 9 this week
3 commentsread comments
1 2 3 4 5
3 more votes to show rating
add to favorites
×
Save as Personal and add changes to this tab that will be seen only by you. Learn more ›
×
You can save this tab as Personal to edit and correct it or add notes. All changes will be seen only by you. Learn more »
launch autoscroll
font size
0
reset
how to read this tab
guitar tuner
edit
Autoscroll
slow
fast
+/-
esc
set tempo
stop
Author
Intro 

e|----------------------------------------------------------------------|
B|--8------8----8------8------\7------7----7\12/5------5----5------5----|
G|------0-----------0--------------0----------------0-----------0-------|
D|----------------------------------------------------------------------|
A|--7--7--7--7--7--7--7--7----\5--5--5--5--5/10/3--3--3--3--3--3--3--3--|
E|----------------------------------------------------------------------|

e|----------------------|
B|--7-------7---7~------|
G|------0---------------|
D|----------------------|
A|--5--5--5--5--5~------|
E|----------------------|

"I don't mind, no I don't mind, I don't mind the rain..."

|-----------------------------------------------------|
|--8------8-----7------7-----3------3----5------5-----|
|------0------------0------------0-----------0--------|
|-----------------------------------------------------| x2
|--7--7--7--7---5--5--5--5---2--2--2--2--3--3--3--3---|
|-----------------------------------------------------|


|------------------------------------------------------|
|--8------8----10-----10---12--------12----5------5----|
|------0------------0------------0-------------0-------|
|------------------------------------------------------|
|--7--7--7--7--9--9--9--9--11--11--11--11--3--3--3--3--|
|------------------------------------------------------|

Then repeat the one above one more time to end the intro/chorus

            
            
Suggest correction
Creating personal tab
Creating personal tab
You can edit any tab online and save it as your Personal.

You can edit, replace or remove any tab part or add personal notes – all changes will be seen only by you.

Personal tabs can be accessed anytime from any device, even offline.
Learn more »
Give kudos to tab author, rate the tab!
1 2 3 4 5
comments
print report bad tab
3 comments total.
0 reply
mfc34 31 Mar 18, 2016 11:57 AM

e|--------|
B|--------|
G|---12---|
D|--------|
A|--------|
D|---9----| play this instead of 10 and 12

0 reply
mfc34 31 Mar 18, 2016 11:58 AM

e|--------|
B|---12---|
G|--------|
D|--------|
A|--------|
D|---9----| my bad do this. Not 12 on G, 12 on B in the intro

0 reply
mfc34 31 Mar 31, 2016 11:57 AM

Wow lots wrong this lol it won't let me change it so ill have to do it here.

It should be 10 and 12, not 11 and 12 on the last part there.

guest
You may want to rate the tab now too:
select rating
Wanna post a correction for this tab? Suggest correction