Oops, an error
Loading. Please wait.

Undead tab

version 5
version 5
2,998 views 3 this week
no commentswrite comment
1 2 3 4 5
2 more votes to show rating
add to favorites
×
Save as Personal and add changes to this tab that will be seen only by you. Learn more ›
×
You can save this tab as Personal to edit and correct it or add notes. All changes will be seen only by you. Learn more »
launch autoscroll
font size
0
reset
how to read this tab
guitar tuner
edit
Autoscroll
slow
fast
+/-
esc
set tempo
stop
Intro

E|-----------------------------------------------------|
B|-----------------------------------------------------|
G|--(Synthesizer)--------------------------------------|
D|-----------------------------------------------------|
A|-----------------------------------------------------|
E|-----------------------------------------------------|

Guitar 2&3
E|-----------------------------------------------------|
B|-----------------------------------------------------|
G|-----------------------------------------------------|
D|--0-0------------------------------------------------|
A|--0-0-x5---------------------------------------------|
E|--0-0------------------------------------------------|

Guitar 1
E|-----------------------------------------------------|
B|-----------------------------------------------------|
G|-----------------------------------------------------|
D|--(Starts at 0:15)--0-0-7-0-8-0-7-0------------------|
A|-----------------------------------10-8-7-8-10-8-7---|
E|--------------------------------------------------10-|

Guitar 3
E|-----------------------------------------------------|
B|-----------------------------------------------------|
G|-----------------------------------------------------|
D|--0--0-----------------------------------------------|
A|--0--0-x5--------------------------------------------|
E|--0--0-----------------------------------------------|

Chorus

Guitar 1
E|-----------------------------------------------------|
B|-----------------------------------------------------|
G|-----------------------------------------------------|
D|--0-0-7-0-8-0-7-0------------------------------------|
A|-----------------10-8-7-8-10-8-7---------------------|
E|--------------------------------10-------------------|

Guitar 2
|------------------------------------------------------|
|------------------------------------------------------|
|------------------------------------------------------|
|------------------------------------------------------|
|------------------------------------------------------|
|--0-0-7-0-8-0-7-0-5-3-2-3-5-3-2-0---------------------|

Guitar 3
E|-----------------------------------------------------|
B|-----------------------------------------------------|
G|-----------------------------------------------------|
D|--0--0-----------------------------------------------|
A|--0--0-(Constantly)----------------------------------|
E|--0--0-----------------------------------------------|

Verse 1

Guitar 1,2&3
E|-----------------------------------------------------|
B|-----------------------------------------------------|
G|-----------------------------------------------------|
D|--0--0-----------------------------------------------|
A|--0--0-(Constantly)----------------------------------|
E|--0--0-----------------------------------------------|

Guitar 1
E|-----------------------------------------------------|
B|-----------------------------------------------------|
G|-----------------------------------------------------|
D|--(Starts at 1:26)--0-0-7-0-8-0-7-0------------------|
A|-----------------------------------10-8-7-8-10-8-7---|
E|--------------------------------------------------10-|

Guitar 2&3
E|-----------------------------------------------------|
B|-----------------------------------------------------|
G|-----------------------------------------------------|
D|--0--0-----------------------------------------------|
A|--0--0-(Constantly)----------------------------------|
E|--0--0-----------------------------------------------|

Chorus

Guitar 1
E|-----------------------------------------------------|
B|-----------------------------------------------------|
G|-----------------------------------------------------|
D|--0-0-7-0-8-0-7-0------------------------------------|
A|-----------------10-8-7-8-10-8-7---------------------|
E|--------------------------------10-------------------|

Guitar 2
|------------------------------------------------------|
|------------------------------------------------------|
|------------------------------------------------------|
|------------------------------------------------------|
|------------------------------------------------------|
|--0-0-7-0-8-0-7-0-5-3-2-3-5-3-2-0---------------------|

Guitar 3
E|-----------------------------------------------------|
B|-----------------------------------------------------|
G|-----------------------------------------------------|
D|--0--0-----------------------------------------------|
A|--0--0-(Constantly)----------------------------------|
E|--0--0-----------------------------------------------|

Verse 2

Guitar 1,2&3
E|-----------------------------------------------------|
B|-----------------------------------------------------|
G|-----------------------------------------------------|
D|--0--0-----------------------------------------------|
A|--0--0-(Constantly)----------------------------------|
E|--0--0-----------------------------------------------|

Guitar 1
E|-----------------------------------------------------|
B|-----------------------------------------------------|
G|-----------------------------------------------------|
D|--(Starts at 2:36)--0-0-7-0-8-0-7-0------------------|
A|-----------------------------------10-8-7-8-10-8-7---|
E|--------------------------------------------------10-|

Guitar 2&3
E|-----------------------------------------------------|
B|-----------------------------------------------------|
G|-----------------------------------------------------|
D|--0--0-----------------------------------------------|
A|--0--0-(Constantly)----------------------------------|
E|--0--0-----------------------------------------------|

Guitar 1,2&3
E|-----------------------------------------------------|
B|-----------------------------------------------------|
G|-----------------------------------------------------|
D|--(At 2:45)--0---(To 2:45)---------------------------|
A|-------------0---------------------------------------|
D|-------------0---------------------------------------|

Chorus

Guitar 1
E|-----------------------------------------------------|
B|-----------------------------------------------------|
G|-----------------------------------------------------|
D|--0-0-7-0-8-0-7-0------------------------------------|
A|-----------------10-8-7-8-10-8-7---------------------|
E|--------------------------------10-------------------|

Guitar 2
|------------------------------------------------------|
|------------------------------------------------------|
|------------------------------------------------------|
|------------------------------------------------------|
|------------------------------------------------------|
|--0-0-7-0-8-0-7-0-5-3-2-3-5-3-2-0---------------------|

Guitar 3
E|-----------------------------------------------------|
B|-----------------------------------------------------|
G|-----------------------------------------------------|
D|--0--0-----------------------------------------------|
A|--0--0-(Constantly)----------------------------------|
E|--0--0-----------------------------------------------|

Verse 3

Guitar 1,2&3
E|-----------------------------------------------------|
B|-----------------------------------------------------|
G|-----------------------------------------------------|
D|--0--0-----------------------------------------------|
A|--0--0-----------------------------------------------|
D|--0--0-----------------------------------------------|

Guitar 1,2&3
E|-----------------------------------------------------|
B|-----------------------------------------------------|
G|-----------------------------------------------------|
D|-----------------------------------------------------|
A|-----------------------------------------------------|
D|-----------------------------------------------------|

Guitar 1,2&3
E|-----------------------------------------------------|
B|-----------------------------------------------------|
G|-----------------------------------------------------|
D|--0--0-----------------------------------------------|
A|--0--0-x2--------------------------------------------|
D|--0--0-----------------------------------------------|

Guitar 1,2&3
E|-----------------------------------------------------|
B|-----------------------------------------------------|
G|-----------------------------------------------------|
D|-----------------------------------------------------|
A|-----------------------------------------------------|
D|-----------------------------------------------------|


Guitar 1,2&3
E|-----------------------------------------------------|
B|-----------------------------------------------------|
G|-----------------------------------------------------|
D|--0--0-----------------------------------------------|
A|--0--0-(Constantly)----------------------------------|
E|--0--0-----------------------------------------------|

Guitar 1
E|-----------------------------------------------------|
B|-----------------------------------------------------|
G|-----------------------------------------------------|
D|--(Starts at 3:36)--0-0-7-0-8-0-7-0------------------|
A|-----------------------------------10-8-7-8-10-8-7---|
E|--------------------------------------------------10-|

Guitar 2&3
E|-----------------------------------------------------|
B|-----------------------------------------------------|
G|-----------------------------------------------------|
D|--0--0-----------------------------------------------|
A|--0--0-(Constantly)----------------------------------|
E|--0--0-----------------------------------------------|

Chorus

Guitar 1
E|-----------------------------------------------------|
B|-----------------------------------------------------|
G|-----------------------------------------------------|
D|--0-0-7-0-8-0-7-0------------------------------------|
A|-----------------10-8-7-8-10-8-7---------------------|
E|--------------------------------10-------------------|

Guitar 2
|------------------------------------------------------|
|------------------------------------------------------|
|------------------------------------------------------|
|------------------------------------------------------|
|------------------------------------------------------|
|--0-0-7-0-8-0-7-0-5-3-2-3-5-3-2-0---------------------|

Guitar 3
E|-----------------------------------------------------|
B|-----------------------------------------------------|
G|-----------------------------------------------------|
D|--0--0-----------------------------------------------|
A|--0--0-(Constantly)----------------------------------|
E|--0--0-----------------------------------------------|

Verse 4

Guitar 1
E|-----------------------------------------------------|
B|-----------------------------------------------------|
G|-----------------------------------------------------|
D|--0-0-7-0-8-0-7-0------------------------------------|
A|-----------------10-8-7-8-10-8-7---------------------|
E|--------------------------------10-------------------|

Guitar 2
|------------------------------------------------------|
|------------------------------------------------------|
|------------------------------------------------------|
|------------------------------------------------------|
|------------------------------------------------------|
|--0-0-7-0-8-0-7-0-5-3-2-3-5-3-2-0---------------------|

Guitar 3
E|-----------------------------------------------------|
B|-----------------------------------------------------|
G|-----------------------------------------------------|
D|--0--0-----------------------------------------------|
A|--0--0-(Constantly)----------------------------------|
E|--0--0-----------------------------------------------|
Suggest correction
Creating personal tab
Creating personal tab
You can edit any tab online and save it as your Personal.

You can edit, replace or remove any tab part or add personal notes – all changes will be seen only by you.

Personal tabs can be accessed anytime from any device, even offline.
Learn more »
Give kudos to tab author, rate the tab!
1 2 3 4 5
comments
print report bad tab
guest
You may want to rate the tab now too:
select rating
Wanna post a correction for this tab? Suggest correction