Oops, an error
Loading. Please wait.

Young tab

version 3
version 3
2,285 views 1 this week
1 commentread comment
1 2 3 4 5
1 last vote to show rating
add to favorites
×
Save as Personal and add changes to this tab that will be seen only by you. Learn more ›
×
You can save this tab as Personal to edit and correct it or add notes. All changes will be seen only by you. Learn more »
launch autoscroll
font size
0
reset
how to read this tab
guitar tuner
backing track
0:00
0:00
edit
Autoscroll
slow
fast
+/-
esc
set tempo
stop
------------------------
Young - Hollywood Undead
------------------------
Tabbed by: UTG
 
- I think I got this all right. It's pretty easy.

Tuning: Standard


Intro:
e|--------------------------------------------------|
B|-----------------8--8----6--6----8--8-------------|
G|---------5--5-------------------------------------|     X2
D|--------------------------------------------------|
A|--------------------------------------------------|
E|--------------------------------------------------|
 * I believe some kind of delay effect is used for the intro *



Chorus:
e|---------------------------------------------------------|
B|---------------------------------------------------------|
G|---55555555-----88888888---------------------------------|    X2
D|---55555555-----88888888-----66666666-----88888888-------|
A|---33333333-----66666666-----66666666-----88888888-------|
E|-----------------------------44444444-----66666666-------|



Verse:(There's no guitar part but here's the chords anyway)
e|--------------------------------------------------------|
B|--------------------------------------------------------|
G|--------------------------------------------------------|     X4
D|---10-10---------8-8----------6-6------------8-8--------|
A|---10-10---------8-8----------6-6------------8-8--------|
E|---8--8----------6-6----------4-4------------6-6--------|


Prechorus:
e|---------xxxxxx-------xxxxxx-------xxxxxx-------xxxxxx----|
B|---------xxxxxx-------xxxxxx-------xxxxxx-------xxxxxx----|
G|---------xxxxxx-------xxxxxx-------xxxxxx-------xxxxxx----|     X1
D|---10-10-xxxxxx---8-8-xxxxxx---6-6-xxxxxx---8-8-xxxxxx----|
A|---10-10-xxxxxx---8-8-xxxxxx---6-6-xxxxxx---8-8-xxxxxx----|
E|---8--8--xxxxxx---6-6-xxxxxx---4-4-xxxxxx---6-6-xxxxxx----|

(This is the line right between the chorus and prechorus)
e|------------------------------------|
B|------------------------------------|
G|------------------------------------|     X1
D|---10--12---13---12---10--8---6-----|
A|---x---x----x----x----x---x---x-----|
E|---8---10---11---10---8---6---4-----|



Bridge: (Again, no real guitar part but here's the chords anyway)
e|-----------------------------------------------------------|
B|-----------------------------------------------------------|
G|---------5------------------------------8------------------|    X4
D|---------5----------------6-------------8--------------8---|
A|---------3----------------6-------------6--------------8---|
E|--------------------------4----------------------------6---|
"We will fight, or we will fall, till the angels save us all"


So, there it is. Have fun with it.

            
            
Suggest correction
Creating personal tab
Creating personal tab
You can edit any tab online and save it as your Personal.

You can edit, replace or remove any tab part or add personal notes – all changes will be seen only by you.

Personal tabs can be accessed anytime from any device, even offline.
Learn more »
Give kudos to tab author, rate the tab!
1 2 3 4 5
comments
print report bad tab
1 comment total.
0 reply
AtreyuJ3T 10 Mar 19, 2010 11:35 AM

intro is wrong bud, and theres no delay, also prechorus is wrong.. there is no part between the prechorus and chorus, and its one guitar.. verse isnt right either

guest
You may want to rate the tab now too:
select rating
Wanna post a correction for this tab? Suggest correction