Oops, an error
Loading. Please wait.

Young tab

version 4
version 4
37,474 views 3 this week
13 commentsread comments
1 2 3 4 5
x 28
add to favorites
×
Save as Personal and add changes to this tab that will be seen only by you. Learn more ›
×
You can save this tab as Personal to edit and correct it or add notes. All changes will be seen only by you. Learn more »
launch autoscroll
font size
0
reset
how to read this tab
guitar tuner
backing track
0:00
0:00
edit
Autoscroll
slow
fast
+/-
esc
set tempo
stop
-------------------------------------------------------------------------------
                             Young - Hollywood Undead
-------------------------------------------------------------------------------
hey everyone this is pretty much the same tab as Buchholz21's tab is just I added the 
part that was missing.

Tabbed by: CJ Sandmann
Email: iwildcatbaseball@aol.com

Tuning: Drop D

Intro:

e|-------------------------|
B|-----8-8-----6-6---8-8---|
G|-5-5-----5-5----5--------|
D|-------------------------|    X 2
A|-------------------------|
D|-------------------------|

Chorus:

e|-------------------------------------------------|
B|-------------------------------------------------|
G|-5------------8----------------------------------|
D|-5-x4---------8-x4--------6----------8-----------|  X 2
A|-3------------6-----------6-x4-------8-x4--------|
D|--------------------------6----------8-----------|

Verse:

e|-----------------------------------------------|
B|-----------------------------------------------|
G|-5-5-------------------------------------------|
D|-5-5---------8-8--------6-6-------5-5----3-3---|  X 4
A|-3-3---------8-8--------6-6-------5-5----3-3---|
D|-------------8-8--------6-6-------5-5----3-3---|

Pre-Chorus: (there's two ways you can play this)

(first way) this way is pretty much just a rhythm guitar
e|-----------------------------------------------------|
B|-----------------------------------------------------|
G|-5-5-xxxxxx------------------------------------------|
D|-5-5-xxxxxx--8-8-xxxxxx--6-6-xxxxxx--5-5-xx--3-3-xx--|
A|-3-3-xxxxxx--8-8-xxxxxx--6-6-xxxxxx--5-5-xx--3-3-xx--|
D|-------------8-8-xxxxxx--6-6-xxxxxx--5-5-xx--3-3-xx--|

(second way) this way has the little lead part thats in there that is kind of hard to 
but this is the way i play it and it sounds great in my mind
e|---------------------------------------------------------------|
B|---------------------------------------------------------------|
G|-5-5-xxxxxx----------------------------------------------------|
D|-5-5-xxxxxx--8-8-xxxxxx--6-6-xxxxxx----------------------------|
A|-3-3-xxxxxx--8-8-xxxxxx--6-6-xxxxxx----------------------------|
D|-------------8-8-xxxxxx--6-6-xxxxxx--10-12-13-12-10--10p8-8p6--|

Chorus:

e|-------------------------------------------------|
B|-------------------------------------------------|
G|-5------------8----------------------------------|
D|-5-x4---------8-x4--------6----------8-----------|  X 2
A|-3------------6-----------6-x4-------8-x4--------|
D|--------------------------6----------8-----------|

Verse 2:

e|-----------------------------------------------|
B|-----------------------------------------------|
G|-5-5-------------------------------------------|
D|-5-5---------8-8--------6-6-------5-5----3-3---|  X 4
A|-3-3---------8-8--------6-6-------5-5----3-3---|
D|-------------8-8--------6-6-------5-5----3-3---|

Pre-Chorus: (there's two ways you can play this)

(first way) this way is pretty much just a rhythm guitar
e|-----------------------------------------------------|
B|-----------------------------------------------------|
G|-5-5-xxxxxx------------------------------------------|
D|-5-5-xxxxxx--8-8-xxxxxx--6-6-xxxxxx--5-5-xx--3-3-xx--|
A|-3-3-xxxxxx--8-8-xxxxxx--6-6-xxxxxx--5-5-xx--3-3-xx--|
D|-------------8-8-xxxxxx--6-6-xxxxxx--5-5-xx--3-3-xx--|

(second way) this way has the little lead part thats in there that is kind of hard to 
but this is the way i play it and it sounds great in my mind
e|---------------------------------------------------------------|
B|---------------------------------------------------------------|
G|-5-5-xxxxxx----------------------------------------------------|
D|-5-5-xxxxxx--8-8-xxxxxx--6-6-xxxxxx----------------------------|
A|-3-3-xxxxxx--8-8-xxxxxx--6-6-xxxxxx----------------------------|
D|-------------8-8-xxxxxx--6-6-xxxxxx--10-12-13-12-10--10p8-8p6--|

Chorus:

e|-------------------------------------------------|
B|-------------------------------------------------|
G|-5------------8----------------------------------|
D|-5-x4---------8-x4--------6----------8-----------|  X 2
A|-3------------6-----------6-x4-------8-x4--------|
D|--------------------------6----------8-----------|

Bridge:

e|-----------------------------------------|        |---------|
B|-----------------------------------------|        |---------|
G|--5----------------------------3---------|        |--5------|
D|--5--(x4)---6---------1---------3--(x8)----| X 4 |--5-------|
A|--3--------6--(x4)----1--(x8)----1---------|        |--3----|
D|-----------6---------1-------------------|        |---------|

Chorus: (rest for the first half of the first chorus)

e|-------------------------------------------------|
B|-------------------------------------------------|
G|-5------------8----------------------------------|
D|-5-x4---------8-x4--------6----------8-----------|  X 2
A|-3------------6-----------6-x4-------8-x4--------|
D|--------------------------6----------8-----------|

Outro:

e|-------------------------|
B|-----8-8-----6-6---8-8---|
G|-5-5-----5-5----5--------|
D|-------------------------|    X 2
A|-------------------------|
D|-------------------------|


| /  slide up
| \  slide down
| h  hammer-on
| p  pull-off
| ~  vibrato
| +  harmonic
| x  Mute note
===============================================================================

            
            
Suggest correction
Creating personal tab
Creating personal tab
You can edit any tab online and save it as your Personal.

You can edit, replace or remove any tab part or add personal notes – all changes will be seen only by you.

Personal tabs can be accessed anytime from any device, even offline.
Learn more »
comments
print report bad tab
13 comments total. Showing first comments.
0 reply
Kierans239 10 Jul 15, 2009 02:25 PM

good tab man... seems the most accurate out of all of them... just wish someone would tab the keyboard bit onto guitar... the songs quite boring otherwise =/ well thanks anyway man... great tab (Y)

Kidsan (:

0 reply
Factor13x 480 Jul 15, 2009 08:33 PM

yea if i knew the keyboard bit i would do it but i dont ill try and figure it out though. it took me a little while just to figure out that quick lead part before the chorus so it might not be a quick thing

0 reply
Kierans239 10 Jul 24, 2009 02:04 PM

Its not exactly a big deal... just the song is kinda boring... but kudos on the lead part before the chorus... also, are you sure its drop D? some people say they play in drop C?

Kidsan (:

guest
You may want to rate the tab now too:
select rating
Wanna post a correction for this tab? Suggest correction