Oops, an error
Loading. Please wait.

Caledonia bass

43 views 3 this week
no commentswrite comment
1 2 3 4 5
3 more votes to show rating
add to favorites
×
Save as Personal and add changes to this tab that will be seen only by you. Learn more ›
×
You can save this tab as Personal to edit and correct it or add notes. All changes will be seen only by you. Learn more »
launch autoscroll
font size
0
reset
guitar tuner
edit
Autoscroll
slow
fast
+/-
esc
set tempo
stop
Author
Difficulty
About this tab version
Bass tab for "Caledonia" by Holocaust. Was this info helpful? Yes No
Band: Holocaust
Album: Hypnosis of Birds / Spirits Fly
Song: Caledonia
Tab: Bass
Tabbed by: muberal

Tempo: 155bpm
4/4

[Intro]

G|----------------------------|----------------------------|
D|----------------------------|----------------------------|
A|--2-----2--2-----2--2--2----|--0-----0--0-----0--0--0----|
E|----------------------------|----------------------------|

G|----------------------------|----------------------------|
D|----------------------------|----------------------------|
A|----------------------------|----------------------------|
E|--3--------3--------3-------|----------------------------|

[Guitar Solo 1]

G|----------------------------|----------------------------|
D|----------------------------|----------------------------|
A|--2-----2-----2--2--0--2----|-----2-----2--2--2--2--0----|
E|----------------------------|----------------------------|

G|----------------------------|----------------------------|
D|----------------------------|----------------------------|
A|----------------------------|--------------0-----0-------|
E|--3-----3-----3--3--3--3----|-----3-----3----------------|

G|----------------------------|----------------------------|
D|----------------------------|--------------------0--0----|
A|--2-----2-----2--2--0--2----|-----2--2-------------------|
E|----------------------------|-----------0--2--2----------|

G|----------------------------|----------------------------|
D|----------------------------|----------------------------|
A|--2-----2-----2--2--0--2----|-----2-----2--2--2--2--0----|
E|----------------------------|----------------------------|

G|----------------------------|----------------------------|
D|----------------------------|----------------------------|
A|--2-----2-----2--2--0--2----|-----2--2--2--2--2--2-------|
E|----------------------------|-----------------------3----|

G|----------------------------|----------------------------|
D|----------------------------|----------------------------|
A|----------------------------|----------------------------|
E|--0-----0-----0--0--0--0----|-----0--0--0--3-----3-------|

G|----------------------------|----------------------------|
D|----------------------------|----------------------------|
A|--2-----2-----2--0-----2----|-----2-----2--2--2--2--0----|
E|----------------------------|----------------------------|

G|----------------------------|----------------------------|
D|----------------------------|----------------------------|
A|----------------------------|----------------------------|
E|--3-----3-----3--3--3--3----|-----3--3--3--3-----2-------|


G|----------------------------|----------------------------|
D|----------------------------|----------------------------|
A|----------------------------|--------------0-----0-------|
E|--0-----0-----0--0--0--0----|-----0--0--0----------------|

G|----------------------------|----------------------------|
D|----------------------------|----------------------------|
A|--2-----2-----2--2--2--2----|-----2--2--2--2--2--2--2----|
E|----------------------------|----------------------------|

[Verse 1]

G|----------------------------|----------------------------|
D|-----------------4--4-------|-----------------2--2-------|
A|--2--------2-----------2----|--0--------0-----------0----|
E|----------------------------|----------------------------|

G|----------------------------|----------------------------|
D|----------------------------|-----------------5--4--0----|
A|----------------------------|--0--------0----------------|
E|--3--------3----------------|----------------------------|

G|----------------------------|----------------------------|
D|-----------------4--4-------|-----------------2--2-------|
A|--2--------2-----------2----|--0--------0-----------0----|
E|----------------------------|----------------------------|

G|----------------------------|----------------------------|
D|----------------------------|-----------------5--4--0----|
A|----------------------------|--0--------0----------------|
E|--3--------3----------------|----------------------------|

G|----------------------------|----------------------------|
D|-----------------4--4-------|-----------------2--2-------|
A|--2--------2-----------2----|--0--------0-----------0----|
E|----------------------------|----------------------------|

G|----------------------------|----------------------------|
D|----------------------------|-----------------5--4--0----|
A|----------------------------|--0--------0----------------|
E|--3--------3----------------|----------------------------|

G|----------------------------|----------------------------|
D|-----------------4--4-------|-----------------2----------|
A|--2--------2-----------2----|--0--------0-----------0----|
E|----------------------------|----------------------------|

G|----------------------------|----------------------------|
D|----------------------------|----------------------------|
A|----------------------------|--0--------0-----0--0--4----|
E|--3--------3--------3--4----|----------------------------|

[Chorus 1]

G|----------------------------|----------------------------|
D|--0-----0--------0--0--2----|--------0--2-----0----------|
A|----------------------------|-----0--------------2--0----|
E|----------------------------|----------------------------|

G|----------------------------|----------------------------|
D|--0-----0--------0--0--2----|--------0--2-----0----------|
A|----------------------------|-----0--------------2--0----|
E|----------------------------|----------------------------|

G|----------------------------|----------------------------|
D|--0-----0--------0--0--2----|----------------------------|
A|----------------------------|----------------------------|
E|----------------------------|--0--0--0--0--0--0--0--0----|

G|----------------------------|----------------------------|
D|-----------4-----4----------|----------------------------|
A|--2--------------------0----|--2--------2-----2-----0----|
E|----------------------------|----------------------------|

G|-----------2-----0----------|-----------2-----0----------|
D|-----------------------0----|-----------------------0----|
A|----------------------------|----------------------------|
E|--3-----3-------------------|--3-----3-------------------|

G|-----------6-----7----------|-----------6-----7----------|
D|----------------------------|-----------------------7----|
A|--------9--------------9----|--------9-------------------|
E|--7-------------------------|--7-------------------------|

G|----------------------------|----------------------------|
D|-----------2-----0----------|----------------------------|
A|-----------------------2----|----------------------------|
E|--0-------------------------|--0--0--0-------------------|

[Guitar Solo 2]

G|----------------------------|----------------------------|----------------------------|
D|----------------------------|----------------------------|----------------------------|
A|--2-----2-----2--2--0--2----|-----2-----2--4--5--4--0----|----------------------------|
E|----------------------------|----------------------------|--3-----3--3--3--3--3--3----|

G|----------------------------|----------------------------|
D|----------------------------|----------------------------|
A|--2-----2-----2--2--0--2----|-----2-----2--4--5--4--0----|
E|----------------------------|----------------------------|

G|----------------------------|-------------------------------------------------|
D|--5--------4----------------|-------------------------------------------------|
A|-----------------4-----4----|-------5-----5-----------------5-----4--4--0--0--|
E|----------------------------|-------------------------------------------------|

G|----------------------------|----------------------------|-------------------------------------------------|
D|----------------------------|----------------------------|-------------------------------------------------|
A|--2-----2-----2--2--0--2----|-----2-----2--4--5--4--0----|-------------------------------------5--5--------|
E|----------------------------|----------------------------|--3----------3-----3-----3-----3-----------3--3--|

G|----------------------------|----------------------------|
D|----------------------------|----------------------------|
A|----------------------------|----------------------------|
E|--0--------3--------5-------|-----5--5--5--2--2--5--5----|

[Verse 2]

G|----------------------------|----------------------------|
D|-----------------4--4-------|-----------------2--2-------|
A|--2--------2-----------2----|--0--------0-----------0----|
E|----------------------------|----------------------------|

G|----------------------------|----------------------------|
D|----------------------------|-----------------5--4--0----|
A|----------------------------|--0--------0----------------|
E|--3--------3----------------|----------------------------|

G|----------------------------|----------------------------|
D|-----------------4--4-------|-----------------2--2-------|
A|--2--------2-----------2----|--0--------0-----------0----|
E|----------------------------|----------------------------|

G|----------------------------|----------------------------|
D|----------------------------|-----------------5--4--0----|
A|----------------------------|--0--------0----------------|
E|--3--------3----------------|----------------------------|

G|----------------------------|----------------------------|
D|-----------------4--4-------|-----------------2--2-------|
A|--2--------2-----------2----|--0--------0-----------0----|
E|----------------------------|----------------------------|

G|----------------------------|----------------------------|
D|----------------------------|-----------------5--4--0----|
A|----------------------------|--0--------0----------------|
E|--3--------3----------------|----------------------------|

G|----------------------------|----------------------------|
D|-----------------4--4-------|-----------------2----------|
A|--2--------2-----------2----|--0--------0-----------0----|
E|----------------------------|----------------------------|

G|----------------------------|----------------------------|
D|----------------------------|----------------------------|
A|----------------------------|--0--------0-----0--0--4----|
E|--3--------3--------3--4----|----------------------------|

[Chorus 2]

G|----------------------------|----------------------------|
D|--0-----0--------0--0--2----|--------0--2-----0----------|
A|----------------------------|-----0--------------2--0----|
E|----------------------------|----------------------------|

G|----------------------------|----------------------------|
D|--0-----0--------0--0--2----|--------0--2-----0----------|
A|----------------------------|-----0--------------2--0----|
E|----------------------------|----------------------------|

G|----------------------------|----------------------------|
D|--0-----0--------0--0--2----|----------------------------|
A|----------------------------|----------------------------|
E|----------------------------|--0--0--0--0--0--0--0--0----|

G|----------------------------|----------------------------|
D|-----------4-----4----------|----------------------------|
A|--2--------------------0----|--2--------2-----2-----0----|
E|----------------------------|----------------------------|

G|-----------2-----0----------|-----------2-----0----------|
D|-----------------------0----|-----------------------0----|
A|----------------------------|----------------------------|
E|--3-----3-------------------|--3-----3-------------------|

G|-----------6-----7----------|--------------------6-----------7-------------------|
D|----------------------------|-----------------------------------------4--4-------|
A|--------9--------------9----|--------------9-------------------------------------|
E|--7-------------------------|--7-------------------------------------------------|

G|----------------------------|----------------------------|
D|-----------2-----0----------|----------------------------|
A|-----------------------2----|----------------------------|
E|--0-------------------------|--0--0--0-------------------|

[Bridge]

G|----------------------------|----------------------------|
D|----------------------------|----------------------------|
A|--2--------2--------2-------|----------------------------|
E|----------------------------|--------------x--x--x-------| (Dead Notes on 2nd fret)

G|----------------------------|----------------------------|
D|----------------------------|----------------------------|
A|----------------------------|----------------------------|
E|--2--------2--------2-------|--------------x--x--x-------| (Dead Notes on 2nd fret)

G|----------------------------|----------------------------|
D|----------------------------|----------------------------|
A|--2--------2--------2-------|----------------------------|
E|----------------------------|--------------x--x--x-------| (Dead Notes on 2nd fret)

G|----------------------------|----------------------------|
D|----------------------------|----------------------------|
A|----------------------------|----------------------------|
E|--2--------2--------2-------|--------------x--x--x-------| (Dead Notes on 2nd fret)

G|----------------------------|----------------------------|
D|--------2--------2----------|--2--0--2--4-----2--0-------|
A|----------------------------|-----------------------0----|
E|--0--0-----0--0-----0--0----|----------------------------|

G|----------------------------|----------------------------|
D|----------------------------|----------------------------|
A|--2-----2-----2--0-----0----|----------------------------|
E|----------------------------|--3-----3--2-----2--2--2----|

G|----------------------------|----------------------------|
D|--------2--------2----------|--2--0--2--4-----2--0-------|
A|----------------------------|-----------------------0----|
E|--0--0-----0--0-----0--0----|----------------------------|

G|----------------------------|----------------------------|
D|----------------------------|----------------------------|
A|--2-----2-----2--0-----0----|----------------------------|
E|----------------------------|--3-----3--2-----2--2--2----|

G|----------------------------|----------------------------|
D|----------------------------|----------------------------|
A|----------------------------|----------------------------|
E|--0--------3--------5L------|-----2--2--2--2--2--2--2----|

[Verse 3]

G|----------------------------|----------------------------|
D|-----------------4--4-------|-----------------2--2-------|
A|--2--------2-----------2----|--0--------0-----------0----|
E|----------------------------|----------------------------|

G|----------------------------|----------------------------|
D|----------------------------|-----------------5--4--0----|
A|----------------------------|--0--------0----------------|
E|--3--------3----------------|----------------------------|

G|----------------------------|----------------------------|
D|-----------------4--4-------|-----------------2--2-------|
A|--2--------2-----------2----|--0--------0-----------0----|
E|----------------------------|----------------------------|

G|----------------------------|----------------------------|
D|----------------------------|-----------------5--4--0----|
A|----------------------------|--0--------0----------------|
E|--3--------3----------------|----------------------------|

G|----------------------------|----------------------------|
D|-----------------4--4-------|-----------------2--2-------|
A|--2--------2-----------2----|--0--------0-----------0----|
E|----------------------------|----------------------------|

G|----------------------------|----------------------------|
D|----------------------------|-----------------5--4--0----|
A|----------------------------|--0--------0----------------|
E|--3--------3----------------|----------------------------|

G|----------------------------|----------------------------|
D|-----------------4--4-------|-----------------2----------|
A|--2--------2-----------2----|--0--------0-----------0----|
E|----------------------------|----------------------------|

G|----------------------------|----------------------------|
D|----------------------------|----------------------------|
A|----------------------------|--0--------0-----0--0--4----|
E|--3--------3--------3--4----|----------------------------|

[Chorus 3]

G|----------------------------|----------------------------|
D|--0-----0--------0--0--2----|--------0--2-----0----------|
A|----------------------------|-----0--------------2--0----|
E|----------------------------|----------------------------|

G|----------------------------|----------------------------|
D|--0-----0--------0--0--2----|--------0--2-----0----------|
A|----------------------------|-----0--------------2--0----|
E|----------------------------|----------------------------|

G|----------------------------|----------------------------|
D|--0-----0--------0--0--2----|----------------------------|
A|----------------------------|----------------------------|
E|----------------------------|--0--0--0--0--0--0--0--0----|

G|----------------------------|----------------------------|
D|-----------4-----4----------|----------------------------|
A|--2--------------------0----|--2--------2-----2-----0----|
E|----------------------------|----------------------------|

G|-----------2-----0----------|-----------2-----0----------|
D|-----------------------0----|-----------------------0----|
A|----------------------------|----------------------------|
E|--3-----3-------------------|--3-----3-------------------|

G|-----------6-----7----------|-----------6-----7----------|
D|----------------------------|-----------------------7----|
A|--------9--------------9----|--------9-------------------|
E|--7-------------------------|--7-------------------------|

                               slow down/rit.
G|----------------------------|----------------------------|
D|-----------2-----0--0-------|----------------------------|
A|-----------------------2----|--------------0-------------|
E|--0-------------------------|--3-------------------------|

[Outro]

G|----------------------------------------------------|
D|----------------------------------------------------|
A|--2--2--2--2--2--2--2--2--2--2--2--2--2--2--2--2----|
E|----------------------------------------------------|

G|----------------------------------------------------|
D|----------------------------------------------------|
A|--7--7--7--7--9--9--9--9--10-10-10-10-16-16-16-16---|
E|----------------------------------------------------|

G|----------------------------------------------------|
D|----------------------------------------------------|
A|--17-17-17-17-17-17-17-17-17-17-17-17-17-17-17-17---|
E|----------------------------------------------------|

                                          slow down/rit.
G|----------------------------------------------------|
D|----------------------------------------------------|
A|--17-17-17-17-17-17-17-17-17-17-17-17-17\-----------|
E|----------------------------------------------------|

G|----------------|
D|----------------|
A|--2-------------|
E|----------------|

Fin.

************************************
 
| \  slide down

************************************

            
            
Suggest correction
Creating personal tab
Creating personal tab
You can edit any tab online and save it as your Personal.

You can edit, replace or remove any tab part or add personal notes – all changes will be seen only by you.

Personal tabs can be accessed anytime from any device, even offline.
Learn more »
Give kudos to tab author, rate the tab!
1 2 3 4 5
comments
print report bad tab
guest
You may want to rate the tab now too:
select rating
Wanna post a correction for this tab? Suggest correction