Oops, an error
Loading. Please wait.

Valley Of Misery Tab

version 1
version 1

Whole song

Interactive

1,827 views 3 this week
1 commentread comment
1 2 3 4 5
please rate
add to favorites
launch autoscroll
font size
0
reset
how to read this tab
guitar tuner
Tab Pro tools
  • play this tab
  • loop segment
  • change instrument
  • show fretboard
  • metronome
×
Best way to learn
"Valley Of Misery"
Autoscroll
slow
fast
+/-
esc
set tempo
stop
Holochaust
VALLEY OF MISERY 

Legend   
Mark Meaning 
^ Damping (power chords) 
| Silence 
\ Slide down 
/ Slide up 
~ Vibrato 
Em, A, etc.: Chord 
A, B, C, E, F, G 
10,11,12,13,14,15
respectively 

 

Acoustic
----------------------------------------------------------------
------------------------------0-----------------------------0---
----0-------0-------0-------0-------0-------0-------0-----0-----
--4---4---4---4---4---4---4-------4---4---4---4---4-----4-----4-
--------3-------------------------------3-------------2---------
0---------------3-------2-------0---------------3---------------

----------------------------------------------------------------
------------------------------0---------------------0-----------
----0-------0-------0-------0-------0-------0-----0-------0-----
--4---4---4---4---4---4---4-------4---4---4-----4-------------4-
--------3-------------------------------3-----------------------
0---------------3-------2-------0-------------3-------0-3---2---Em

The first melodic (+acoustic on the back)
----0-------------------------------0---------------------------
--0---0-3-1-----------------------0---0-3-1---------------------
------------2-/4--5-4-2-4-2-0---------------2-/4--5-4---5-4---5-
------------------------------4-2-------------------------------
----------------------------------------------------------------
0---------------------------------------------|-----------------

----0-----------------------3-2-0---0----------------------------
--0---0-3-1-----------------------0---0-3-1----------------------
4-----------2-4---5-4-2-0-------------------2-/4-----------------
--------------------------4-----------------------4-5---2-4---1-2
-----------------------------------------------------------------
-----------------------------------------------------------------

Power chords
----------------------------------------------------------------
------4-5-5-|-------------------------4-5-5---------4-4-4-44----
2---|-2-3-3-|---5-5-|-5-5-5-5-5-2---|-2-3-3---5-5---2-2-2-22----
0---|---------/53-3-|-3-2-2-/32-0---|-------/53-3-5---2-2-22----
                          ^                           ^   ^^

-------------------------------------------------------------------
--------/5--5-------------------9-----------------444-----------2--
2-2-|-2-/3--3-5---5-5---5-5-5-557-----5-3-5-3-2---222-----------2--
0-0-|-0-------3---3-3-0-2-2-/3220-----------------------73--2---0--
      ^               ^   ^   ^^      ^           ^^^   \

The acoustic solo
------------------------------------------------------------------
------------------------------------------------------------------
------------------------------------------------------7-9-7-------
------------------------------------------------9---9-------9B9---
/7--7-9-A---975---75----5-----------7-9-A-7-9-A---A---------------
--------------------7----75-75/30---------------------------------

------------------------------------------------------------------
------------------------------------------------------------------
--9-B-C-B-9-7---797------------------------------75454-4----------
9-------------------9-7-7-5--------7-9-A-9-7-5|-------7-75754542--
----------------------------7----7--------------------------------
------------------------------------------------------------------
        ~             /   /              ~

Melodic guitars


=


Artist: Holochaust
Song: Valley of Misery
By: Majin Vegeta----------------------------------------------------------------
------------------------------0-----------------------------0---
----0-------0-------0-------0-------0-------0-------0-----0-----
--4---4---4---4---4---4---4-------4---4---4---4---4-----4-----4-
--------3-------------------------------3-------------2---------
0---------------3-------2-------0---------------3---------------

----------------------------------------------------------------
------------------------------0---------------------0-----------
----0-------0-------0-------0-------0-------0-----0-------0-----
--4---4---4---4---4---4---4-------4---4---4-----4-------------4-
--------3-------------------------------3-----------------------
0---------------3-------2-------0-------------3-------0-3---2---Em


----0-------------------------------0---------------------------
--0---0-3-1-----------------------0---0-3-1---------------------
------------2-/4--5-4-2-4-2-0---------------2-/4--5-4---5-4---5-
------------------------------4-2-------------------------------
----------------------------------------------------------------
0---------------------------------------------|-----------------

----0-----------------------3-2-0---0----------------------------
--0---0-3-1-----------------------0---0-3-1----------------------
4-----------2-4---5-4-2-0-------------------2-/4-----------------
--------------------------4-----------------------4-5---2-4---1-2
-----------------------------------------------------------------
-----------------------------------------------------------------


----------------------------------------------------------------
------4-5-5-|-------------------------4-5-5---------4-4-4-44----
2---|-2-3-3-|---5-5-|-5-5-5-5-5-2---|-2-3-3---5-5---2-2-2-22----
0---|---------/53-3-|-3-2-2-/32-0---|-------/53-3-5---2-2-22----
                          ^                           ^   ^^

-------------------------------------------------------------------
--------/5--5-------------------9-----------------444-----------2--
2-2-|-2-/3--3-5---5-5---5-5-5-557-----5-3-5-3-2---222-----------2--
0-0-|-0-------3---3-3-0-2-2-/3220-----------------------73--2---0--
      ^               ^   ^   ^^      ^           ^^^   


------------------------------------------------------------------
------------------------------------------------------------------
------------------------------------------------------7-9-7-------
------------------------------------------------9---9-------9B9---
/7--7-9-A---975---75----5-----------7-9-A-7-9-A---A---------------
--------------------7----75-75/30---------------------------------

------------------------------------------------------------------
------------------------------------------------------------------
--9-B-C-B-9-7---797------------------------------75454-4----------
9-------------------9-7-7-5--------7-9-A-9-7-5|-------7-75754542--
----------------------------7----7--------------------------------
------------------------------------------------------------------
comments
We did not receive enough feedback on this tab! Please rate:
print report bad tab
1 2 3 4 5
1 comment total.
0 reply
MeTallIcA313 wrote on July 5 2009, 11:36 pm

good tab, this band sounds a lot like metallica

I want to post or [tab]
guest
You may want to rate the tab now too:
select rating
Please do not post tabs as comments. Select "correction" instead!