Oops, an error
Loading. Please wait.

Abc City Tab

955 views 6 this week
no commentswrite comment
1 2 3 4 5
excellent!
x 3
add to favorites
launch autoscroll
font size
0
reset
how to read this tab
guitar tuner
Tab Pro tools
  • play this tab
  • loop segment
  • change instrument
  • show fretboard
  • metronome
×
Best way to learn
"Abc City"
Autoscroll
slow
fast
+/-
esc
set tempo
stop
Contributor
Holograms - ABC City
From the ABC City 7" (2012).

http://holograms.se/

Tabbed by Isaac Murguia, July 2012.
YouTube: Goadiroth

b = bend
h = hammer-on
/\ = slide up/down
. = palm mute
" = tremolo

INTRO+VERSE:
e|----------------------------------|
B|----------------------------------|
G|-7777777x--------8888888x---------|
D|-7777777x8888888x8888888x8888888x-| (x6)
A|-5555555x8888888x6666666x8888888x-|
E|---------6666666x--------6666666x-|

CHORUS:
e|-----------------------------------------|
B|-----------------------------------------|
G|-7777-8888-------------------------------|
D|-7777-8888-8888-8888-8888-8888-5555-5555-| (x4)
A|-5555-6666-8888-8888-8888-8888-5555-5555-|
E|-----------6666-6666-6666-6666-3333-3333-|

Repeat VERSE (x4)
Repeat CHORUS (x4)

BRIDGE:
                                        (x2)
e|---------------------------------|------------|---------------|
B|---------------------------------|------------|---------------|
G|---------------------------------|------------|-7--8--7--8--8-|
D|-8-88-88-5-55-55-8-88-88-5-55-55-|-8--8--8--8-|-7--8--7--8--8-|
A|-8-88-88-5-55-55-8-88-88-5-55-55-|-8--8--8--8-|-5--6--5--6--6-|
E|-6-66-66-3-33-33-6-66-66-3-33-33-|-6--6--6--6-|---------------|

GUITAR SOLO:
e|-10-10-10--10--------10--------10--10----10----|----10-----------------------------|
B|--------------13--13----13--13--------13----13-|-13b---13--13-10-----10-10-8/10-10-|
G|-----------------------------------------------|------------------12b--------------|
D|-----------------------------------------------|-----------------------------------|
A|-----------------------------------------------|-----------------------------------|
E|-----------------------------------------------|-----------------------------------|

e|--------------------------------------|--------------------------------------------|
B|-----------------------10-------------|-10-10-10----10-10-10101010----10-----------|
G|-12b12121212-10--12-12----12-10-12-12-|----------12----------------12----12--10h12-|
D|--------------------------------------|--------------------------------------------|
A|--------------------------------------|--------------------------------------------|
E|--------------------------------------|--------------------------------------------|

e|----------------------------------|----10-10-------10----10-10"""""\-|
B|----10-10101010----10----9--10-12-|-13-------13-13----13-------------|
G|-12-------------12----12----------|----------------------------------|
D|----------------------------------|----------------------------------|
A|----------------------------------|----------------------------------|
E|----------------------------------|----------------------------------|
         . . . .

OUTRO CHORUS:
e|-----------------------------------------|      |-------------|
B|-----------------------------------------|      |-------------|
G|-7777-8888-------------------------------|      |-7777-8888---|
D|-7777-8888-8888-8888-8888-8888-5555-5555-| (x3) |-7777-8888-8-|
A|-5555-6666-8888-8888-8888-8888-5555-5555-|      |-5555-6666-8-|
E|-----------6666-6666-6666-6666-3333-3333-|      |-----------6-| end.
comments
We did not receive enough feedback on this tab! Please rate:
print report bad tab
1 2 3 4 5
I want to post or [tab]
guest
You may want to rate the tab now too:
select rating
Please do not post tabs as comments. Select "correction" instead!