Oops, an error
Loading. Please wait.

Aleluya A Cristo El Rey tab

version 2
version 2

Whole song

59 views 3 this week
no commentswrite comment
1 2 3 4 5
3 more votes to show rating
add to favorites
×
Save as Personal and add changes to this tab that will be seen only by you. Learn more ›
×
You can save this tab as Personal to edit and correct it or add notes. All changes will be seen only by you. Learn more »
launch autoscroll
font size
0
reset
how to read this tab
guitar tuner
edit
Autoscroll
slow
fast
+/-
esc
set tempo
stop
Intro:
Este primer intro empieza con un tipo  de rasgueo de dos y
tapando....es cuestion de que le des el sabor...
Weno eso es todo... hay te ves


      A           B        C#m         A
e|----5-----|-----7----|----9-----|----5-----|
B|----5-----|-----7----|----9-----|----5-----|
B|----5-----|-----7----|----9-----|----5-----|
B|----5-----|-----7----|----9-----|----5-----|
B|----5-----|-----7----|----9-----|----5-----|
B|----5-----|-----7----|----9-----|----5-----|

     A           B        C#m         C#m
e|----5-----|-----7----|----9-----|----9-----|
B|----5-----|-----7----|----9-----|----9-----|
B|----5-----|-----7----|----9-----|----9-----|
B|----5-----|-----7----|----9-----|----9-----|
B|----5-----|-----7----|----9-----|----9-----|
B|----5-----|-----7----|----9-----|----9-----|

    E            B      C#m
e|---------------------------------------------------|
B|---------9-------------------9---------------------|
G|--9--11-------11------9--11------8--6--8-----------|
D|---------------------------------------------------|
A|---------------------------------------------------|
E|---------------------------------------------------|


    E            B      C#m
e|---------------------------------------------------|
B|---------9-------------------9---------------------|
G|--9--11-------11------9--11------8--6--8-----------|
D|---------------------------------------------------|
A|---------------------------------------------------|
E|---------------------------------------------------|


E           B
Aleluya a Cristo el Rey
    C#m     A       B
Aleluya bendito es El
    E        B
Aleluya a Cristo el Rey
    A        A              B
Aleluya, aleluya a nuestro Rey


    E            B      C#m
e|---------------------------------------------------|
B|---------9-------------------9---------------------|
G|--9--11-------11------9--11------8--6--8-----------|
D|---------------------------------------------------|
A|---------------------------------------------------|
E|---------------------------------------------------|

    E            B      C#m
e|---------------------------------------------------|
B|---------9-------------------9---------------------|
G|--9--11-------11------9--11------8--6--8-----------|
D|---------------------------------------------------|
A|---------------------------------------------------|
E|---------------------------------------------------|


E           B
Aleluya a Cristo el Rey
    C#m     A       B
Aleluya bendito es El
    E        B
Aleluya a Cristo el Rey
    A        A              B
Aleluya, aleluya a nuestro Rey

E                   A
Sobre los montes y los collados
E                  A
Todo poder en la tierra es dado
E                    A
Al Rey de gloria al hijo amado
E                     A
Aquien  su nombre es exaltado

B                      C#m
Sobre los cielos la tierra y el mar es su nombre
B                    C#m
Sobre el sol las estrellas y el firmamento
                    B
Es Su nomnre, es Su nombre

Coro:

  E           B
//Aleluya a Cristo el Rey
    C#m     A       B
Aleluya bendito es El
    E        B
Aleluya a Cristo el Rey
    A        A              B
Aleluya, aleluya a nuestro Rey//


Final Intro:


e|---------------------------------------------------|
B|---------9-------------------9---------------------|
G|--9--11-------11------9--11------8--6--8-----------|
D|---------------------------------------------------|
A|---------------------------------------------------|
E|---------------------------------------------------|


e|---------------------12--11--------------------------------|
B|---------9-------------------12----14--12--9--7------------|
G|--9--11-------11------------------------------------8---9--|
D|-----------------------------------------------------------|
A|-----------------------------------------------------------|
E|-----------------------------------------------------------|


Saludos a la Iglesia Principe de Paz en Pajapan
a todos los chavos y al grupo Adonai al cantante Maurilio
y al guitarrista toñito................
Que el Señor los bendiga......

            
            
Suggest correction
Creating personal tab
Creating personal tab
You can edit any tab online and save it as your Personal.

You can edit, replace or remove any tab part or add personal notes – all changes will be seen only by you.

Personal tabs can be accessed anytime from any device, even offline.
Learn more »
Give kudos to tab author, rate the tab!
1 2 3 4 5
comments
print report bad tab
guest
Wanna post a correction for this tab? Suggest correction