Oops, an error
Loading. Please wait.

Ataque De Chicas Cocodrilo Tab

2,760 views 1 this week
no commentswrite comment
1 2 3 4 5
please rate
add to favorites
launch autoscroll
font size
0
reset
how to read this tab
guitar tuner
Autoscroll
slow
fast
+/-
esc
set tempo
stop
Help us to improve Ultimate-Guitar.com Take our survey!
×
                       solo

Solo de ataque de chicas cocodrilo
e---------------------------------------------------------------------------|
B---9/10-9------------------------------------------------------------------|
G-------------6-4/6----------------2/1-1/2-2--------------------------------|
D-----------------------4----2—4--------------------------------------------|
A---------------------------------------------------------------------------|
E---------------------------------------------------------------------------|

E----------------------------------------------------------------------------|
B---9/10-9--------------------------------------------7-7-7-7-7-7-7----------|
G--------------6—4/6---------------6---------------6-6-6-6-6-6-6-------------|
D--------------------------4---------7-----------------7-7-7-7-7-7-7---------|
A----------------------------------------------------------------------------|
E----------------------------------------------------------------------------|
Y LUEGO UNOS ACORDES A-E-E-E-F#m-D-D-D-D Y LUEGO OTRO --
Suggest correction
Give kudos to tab author, rate the tab!
1 2 3 4 5
comments
print report bad tab
guest
You may want to rate the tab now too:
select rating
Wanna post a correction for this tab? Suggest correction