Oops, an error
Loading. Please wait.

Pienso En Aquella Tarde tab

62 views 1 this week
no commentswrite comment
1 2 3 4 5
3 more votes to show rating
add to favorites
×
Save as Personal and add changes to this tab that will be seen only by you. Learn more ›
×
You can save this tab as Personal to edit and correct it or add notes. All changes will be seen only by you. Learn more »
launch autoscroll
font size
0
reset
how to read this tab
guitar tuner
edit
Autoscroll
slow
fast
+/-
esc
set tempo
stop
Que onda a todos los chavos de la cuerda
pues esta es original del grupo español
"Pereza" por si quieren buscar ahi se ven =D

Los acordes entre parentesis son los k toca ruben,
esto os viene bien si teneis un colega guitarrista,
si la tocais con una sola guitarra tocad los acordes
k no estan entre parenteis osea los k toca leiva.
en la parte "yo que me kiero aliviar..." asta el
estribillo, la 2º guitarra toca esos acordes pero
en los trastes 8 y 9, menos sol y re k se tocan
las variaciones  terminar, os explico
el porque de los acordes k e nombrado C-G y D-C,
el acorde C-G es Do con el bajo en Sol, y D-C
es una variacion de Re k utiliza muxas veces Ruben,
es la posicion de Do pero dos trastes mas abajo
sin cejilla.


      C-G  D-C    G     D    Em7  Cadd9    SIm   D7

MI--  -0-  -0-   -3-   -2-   -0-   -3-     -2-   -2-  --MI
SI--  -1-  -3-   -3-   -3-   -3-   -3-     -3-   -1-  --SI
SOLm  -0-  -0-   -0-   -2-   -0-   -0-     -4-   -2-  -SOL
RE--  -2-  -4-   -0-   -0-   -2-   -2-     -4-   -0-  --RE
LA--  -3-  -5-   -2-   -x-   -2-   -3-     -2-   -x-  --LA
MI--  -3-  -x-   -3-   -x-   -0-   -x-     -2-   -x-  --MI


[Intro] (A la vez que otra guitarra raspea los acordes G, Cadd9, Em7, D)

E||-------0-----------------------||
B||---0-3---3---------------------||
G||------------0-2-4-2-0-----0----||
D||----------------------0-2------||
A||-------------------------------||
E||-------------------------------||
          Repetir 4 veces


[Estrofa]

G               Cadd9                     Em7
Yo que soy un animal, que no entiendo de nada
            D    Cadd9 (C)    G
que todo me sa - le          mal.

G            Cadd9            Em7
Te tuve cien días dentro de mi cama
               D    Cadd9 (C)     G
y no te supe apro - ve            char.

G       Cadd9             Em7
Ando perdido pensando que estás sola
              D             G
y pude haber sido tu abrigo.

G            Cadd9             Em7
Cuelgo de un hilo, rebaño las sobras
               D
que aún quedan de tu cariño.

SIm                  Em7
Yo, que me quiero aliviar
                 C-G              G  D     Em7
escribiéndote un tema, diciéndote la ver - dad.

Em7       SIm               C-G
Cumplo condena por ese mal día
           D7 (D-C)
haberte dejao marchar...


[estribillo]

G                 Cadd9        Em7             D
Pienso en aquella tarde cuando me arrepentí de todo.
G               Cadd9           Em7                  D
Daría, todo lo daría por estar contigo y no sentirme sólo...

[Repetir aquí la intro]


A tí, que te supo tan mal
que yo me encariñara con esa facilidad,
y me emborrachara los días
que tú no tenías que trabajar...

Era un domingo,
llegaba después de tres días comiéndome el mundo.
Todo se acaba, dijiste mirándome,
que ya no estábamos juntos...

[Estribillo]


Solo de Ruben
||-----------------------------------------------------------------||
||-----------------------------------------------------------------||
||--7--0--0--7/9--9--7--7--0--0--0--2--4--4--4--4--4--5--4--4/7--5-||
||-----------------------------------------------------------------||
||-----------------------------------------------------------------||
||-----------------------------------------------------------------||


||-----------------------------------------------------------------||
||----------------------8-8-8-7-5-5/7-5-3-3/5-3-1-1/3-1------------||
||--4--4/5--4--2--0---------------------------------------0-0/2-0--||
||-----------------------------------------------------------------||
||-----------------------------------------------------------------||
||-----------------------------------------------------------------||


||--------------------------------------------------12-12-12-12-12-12-||
||--------------------------------12-12-12-12-12-12----------------||
||--------------12-12-12-12-12-12----------------------------------||
||0/2--4/2--0------------------------------------------------------||
||-----------------------------------------------------------------||
||-----------------------------------------------------------------||


||---------------------------0---------------------||
||--0/1-0---0/1-0--------0-3---3-------------------||
||--------2-------2-0------------0-2-4-2-0-----0---||
||-----------------------------------------0-2-----||
||-------------------------------------------------||
||-------------------------------------------------||

[Estribillo] x2

final en Sol

            
            
Suggest correction
Creating personal tab
Creating personal tab
You can edit any tab online and save it as your Personal.

You can edit, replace or remove any tab part or add personal notes – all changes will be seen only by you.

Personal tabs can be accessed anytime from any device, even offline.
Learn more »
Give kudos to tab author, rate the tab!
1 2 3 4 5
comments
print report bad tab
guest
Wanna post a correction for this tab? Suggest correction