Oops, an error
Loading. Please wait.

Rita tab

86 views 1 this week
no commentswrite comment
1 2 3 4 5
2 more votes to show rating
add to favorites
×
Save as Personal and add changes to this tab that will be seen only by you. Learn more ›
×
You can save this tab as Personal to edit and correct it or add notes. All changes will be seen only by you. Learn more »
launch autoscroll
font size
0
reset
how to read this tab
guitar tuner
edit
Autoscroll
slow
fast
+/-
esc
set tempo
stop
Intro: G-D G-D

    G            D               G             D
e|--7----7---7----5-----5---3--5--7---------5h7-5---------|
B|--------------------------------------------------------|
G|----7-7---7---7---7-7--------------7-7-7---------7-7-7--|
D|--------------------------------------------------------|
A|--------------------------------------------------------|
E|--------------------------------------------------------|

G              D                G   D
Conocimos a la reyna de la ginebra
    G              D           G    D
ella estaba en un bar de carretera
    C                  D
creo que su nombre es rita
     G             Em
no me acuerdo muy bien
   G               D          G   D
solo se que no la volvimos a ver

   G                D                G    D
Intento llevarme arriva por las escaleras
      G                   D                G    D
tuvo que engancharze al cuello en mi borrachera
     C          D
estuvimos celebrando algo
    G             Em
no me preguntes que
     G            D            G
solo se que no podia estar de pie

     Bm        Em        C            Bm
Vi arriva, la cama de madera y un colchon
    Em            C           Bm
debajo una escupidera y el calor
     C            D          G  D  G    D
empapando toda la cama de sudor...oh oh oh


sOLO dE vIOLIN: G-D (x4)

e|------------------------------------------------------------|
B|-------8------8----12-10-8-7h8-------8------8---------------|
G|---7h9----7h9--------------------7h9----7h9-------9-7--9-7--|
D|----------------------------------------------9-7-----------|
A|------------------------------------------------------------|
E|------------------------------------------------------------|


e|------------------7----------------------------------------------|
B|-------8------8-----10-8-7h8-------8------8----------------------|
G|---7h9----7h9------------------7h9----7h9-----999-7--------------|
D|----------------------------------------------------9-7--7h9-7---|
A|-----------------------------------------------------------------|
E|-----------------------------------------------------------------|


      G            D
En la mañana desperte
     G              D
con una resaca de tres
    G               D          G   D
algo confuso y pegajoso me duche
 C            D          G           Em
Ella ya no estaba pero dejo algunas rosas
  G              D         G
en una botella vacia de M.G.

        Bm    Em          C            Bm
Porque rita, rita es la reyna de la ginebra
    Em        C             Bm
me mira con una cierta tristeza
  C           D            G  D   G       D
seguro que no la volvere a ver.....no no no
                                          (Rita)
      G             D                  G
e|----7-----7---7---5-----5----5-------12--|
B|-------------------------------------12--|
G|------7-7---7---7---7-7----7----7----12--|
D|-------------------------------------12--|
A|-----------------------------------------|
E|-----------------------------------------|


SE OCUPA ESTE SOL(G): e|-3-|
                      B|-3-|
                      G|-0-|
                      D|-0-|
                      A|-2-|
                      E|-3-|


*++++++++++++++++++++++++++**********+++++++++++++++++++++++++++++++*

Ps aK sTA, eS la pRImErA Q sUbO, cREO sta BIeN.

***SALUDOS A AZAEL, CARLOS Y RICARDO, D CHACHAPA, PUE.***

      +I4tR3p1D0+
Suggest correction
Creating personal tab
Creating personal tab
You can edit any tab online and save it as your Personal.

You can edit, replace or remove any tab part or add personal notes – all changes will be seen only by you.

Personal tabs can be accessed anytime from any device, even offline.
Learn more »
Give kudos to tab author, rate the tab!
1 2 3 4 5
comments
print report bad tab
guest
Wanna post a correction for this tab? Suggest correction