Oops, an error
Loading. Please wait.

Te Quiero Tab

version 1
version 1

Interactive

Video

132,178 views 147 this week
5 commentsread comments
1 2 3 4 5
excellent!
x 21
add to favorites
launch autoscroll
font size
0
reset
how to read this tab
guitar tuner
Autoscroll
slow
fast
+/-
esc
set tempo
stop
Help us to improve Ultimate-Guitar.com Take our survey!
×
UN SALUDO A TAMPICO TAMPS, MEXICO

e|------------------------------------------------------------------------------|
B|------------------------------------------------------------------------------|
G|------------------------------------------------------------------------------|
D|------------------------------------------------------------------------------|
A|---0--2--5--5------0--2--5--5-------0--2--5--0--2--5---2----------------------|
E|------------------------------------------------------------------------------|

EN ESTA PARTE ENTRA LA BATERIA Y DESPUES UN ACORDE DE RE (D)

e|------------------------------------------------------------------------------|
B|------------------------------------------------------------------------------|
G|------------------------------------------------------------------------------|
D|--------4--4--2--0------------------------------------------------------------|
A|--0--2--------------------4-4-------------------------------------------------|
E|--------------------2--2-------2----------------------------------------------|


e|------------------------------------------------------------------------------|
B|------------------------------------------------------------------------------|
G|------------------------------------------------------------------------------|
D|------------------------------------------------------------------------------|
A|-----4--2--0--------0--2--4--0------------------------------------------------|
E|--2-----------3--3------------------------------------------------------------|


e|------------------------------------------------------------------------------|
B|------------------------------------------------------------------------------|
G|------------------------------------------------------------------------------|
D|-----------0--0--0--0--2--4---------------------------------------------------|
A|--0--2--4--------------------0--0--0--0--4--2--0------------------------------|
E|------------------------------------------------------------------------------|

D  Bm       F#m      Fm-F#m
NO,   NO ME LLORES
    G            A      D    A
NO ME VAYAS A HACER LLORAR A MI
D    Bm          F#m    Fm-F#m
DAME,   DAME TU MANO
   G          A             D      A
INTENTALO MI NIÑA,  QUIERO VERTE REIR
D         Bm
ABRAZAME FUERTE
D                Bm
VEN CORRIENDO A MI,
D
TE QUIERO, TE QUIERO, TE QUIERO
      G                  Gm        D   Bm-D-A
Y NO HAGO OTRA COSA QUE PENSAR EN TI.

e|-----------------------|
B|-----------------------|
G|-----------------------|
D|-----------------------|
A|-0--2--5--0--2--5---2--|
E|-----------------------|

D  Bm             F#m     Fm-F#m
TU,   YA ESTAS DORMIDA
   G               A            D-A
Y YO TE ABRAZO Y SIENTO QUE RESPIRAS
   D   Bm           F#m    Fm-F#M
SUEÑO,    CON TU SONRISA
    G           A            D    A
TE BESO MUY DESPACIO EN TUS MEJILLAS.

D         Bm   D                    Bm
NESECITO VERTE, DONDE QUIERA QUE ESTES
D
TE QUIERO, TE QUIERO, TE QUIERO
      G                  Gm
Y NO HAGO OTRA COSA QUE PENSAR EN TI
      A                   D   Bm
SOLO VIVO Y RESPIRO PARA TI,
     G  A        D-Bm-G-A         G         Gm    D-Bm-G-A
TE QUIERO, TE QUIERO        TE QUIERO, TE QUIERO.

[Solo]

e|------------------------------------------------------------------------------|
B|--10*12---10*12-12-10---------------------------------------------------------|
G|----------------------------11-12-11--9/7----7-9/11-11-11-9*11----------------|
D|----------------------------------------------9-------------------------------|
A|------------------------------------------------------------------------------|
E|------------------------------------------------------------------------------|


e|------------------------------------------------------------------------------|
B|---------------------------------------------------------9/12-12-12-12-10-----|
G|-9-9-9*7----------------------------------7-9~9~-7----------------------------|
D|-----------9-7-9-7-9------------------7-9-------------------------------------|
A|-----------------------9-10-9-7---7-9-----------------------------------------|
E|----------------------------------10------------------------------------------|

e|--7/10-12-10-10/17-15-14-17-17-17-17/19-17-17/19--19/17-----------------------|
B|------------------------------------------------------------------------------|
G|------------------------------------------------------------------------------|
D|------------------------------------------------------------------------------|
A|------------------------------------------------------------------------------|
E|------------------------------------------------------------------------------|

e|----15-15-15*14-------------10---------12-------10-12/14-14-14--12------------|
B|--------------------15--10*12----10*12----10*12-------------------------------|
G|------------------------------------------------------------------------------|
D|------------------------------------------------------------------------------|
A|------------------------------------------------------------------------------|
E|------------------------------------------------------------------------------|

  D       Bm    D                 Bm
ABRAZAME FUERTE, VEN CORRIENDO A MI
D                                       G
DEJAME QUE TE DIGA OTRA VEZ QUE TE QUIERO
     Gm          D     Bm-G-A
TE QUIERO, TE QUIERO
      D     Bm-G-A       D
TE QUIERO,          TE QUIERO
     Bm          G     D
TE QUIERO, TE QUIERO

NOTA:D-Bm-F#m-Fm-F#m-G-A-D-A  D-Bm-F#m-Fm-F#m-G-A-D-A  (ESTOS ACORDES SON
TOCADOS POR UNA SEGUNDA GUITARRA DURANTE EL SOLO)

ESTE ES UN ARREGLO QUE CASI NO SE ESCUCHA EN LA CANCION PERO TOQUENLA LES VA A
SALIR CHIDO

e|---5--0--0--2--0--4--5------------|
B|----------------------------------|
G|----------------------------------|
D|----------------------------------|
A|----------------------------------|
E|----------------------------------|



************************************

| /  Slide up
| ~  Vibrato 

************************************
Suggest correction
What's this?
You can suggest a correction to this tab. Community and Mods will review your correction and vote to approve or reject it.
comments
print report bad tab
5 comments total. Showing first comments.
0 reply
Blackout 13 wrote on April 28 2003, 12:00 am

e-
b-
g-
d-
a---0-2-5-5-5---0-2-5-5-5-----0-2-5-0-2-5-0-2-5
e-

-2 reply
luisaceo 281 wrote on September 10 2006, 10:42 am

this tab sucks

+1 reply
edgara182fan 184 wrote on September 12 2012, 10:49 pm

I like it dude well done!

guest
You may want to rate the tab now too:
select rating
Please do not post tabs as comments. Select "correction" instead!