Oops, an error
Loading. Please wait.

Tengo Una Chica tab

version 2
version 2

Whole song

88 views 1 this week
no commentswrite comment
1 2 3 4 5
3 more votes to show rating
add to favorites
×
Save as Personal and add changes to this tab that will be seen only by you. Learn more ›
×
You can save this tab as Personal to edit and correct it or add notes. All changes will be seen only by you. Learn more »
launch autoscroll
font size
0
reset
how to read this tab
guitar tuner
edit
Autoscroll
slow
fast
+/-
esc
set tempo
stop
Vi la transcripcion y pues...me decidi a sacarla bien
o por lo menos
un poquito mejor.
Pero los acordes del que la puso previamente esta correctos.

Intro:

primera guitarra
e|----------------------------||
b|----------------------------||
g|----7-----6----4----6~~-6---||
d|----7-----7----7----7~~-7---||
a|-77----77---77---77---------||
e|----------------------------|| se repite

Segunda guitarra
e|-10-10-10--9--9--9--9--9--7--7--7--9--9--9--9--9--|
b|-10-10-10-10-10-10-10-10-10-10-10-10-10-10-10-10--|
g|--------------------------------------------------|
d|--------------------------------------------------|
a|--------------------------------------------------|
e|--------------------------------------------------|

Verso 1 y 2...

Despues que canta "pero esta chica me a robado el corazon"
se toca esto.  Tambien se toca siempre antes de entrar al coro.

e|-------------------|
b|-------------------|
g|---------------2---|
d|---------2-4-5-----|
a|-0-2-4-5-----------|
e|-------------------|

En el coro despues de "mirando al cielo cada noche" toquen esto:
e|------------------|
b|------------------|
g|-------------2----|
d|-------2-4-5---5--|
a|-2-4-5------------|
e|------------------|
tambien despues de "no tengas miedo esta noche"

Verso 3...
y algo que se parece al solo de sax.

e|-------10~---------10-------------10~--------10-12~-12p9----|
b|-10-12-------10-12----12//--10-12------10-12-------------10-|
g|------------------------------------------------------------|
d|------------------------------------------------------------|
a|------------------------------------------------------------|
e|------------------------------------------------------------|

e|-------10-14-14-10-------10-14-------21^----17^-------------|
b|-10-12-------------10-12-------10-12------------------------|
g|------------------------------------------------------------|
d|------------------------------------------------------------|
a|------------------------------------------------------------|
e|------------------------------------------------------------|

e|-15-14--15-14--15-14---------|
b|----------------------15-15--|
g|-----------------------------|
d|-----------------------------|
a|-----------------------------|
e|-----------------------------|


Despues de esto todo es igual y al final termina con:

e|-10-10-10--9--9--9--9--9--7--7--7--9--9--9--9--9--|
b|-10-10-10-10-10-10-10-10-10-10-10-10-10-10-10-10--|
g|--------------------------------------------------|
d|--------------------------------------------------|
a|--------------------------------------------------|
e|--------------------------------------------------|2x

e|-10~~~~~-|
b|-10~~~~~-|

Y esto es el final

            
            
Suggest correction
Creating personal tab
Creating personal tab
You can edit any tab online and save it as your Personal.

You can edit, replace or remove any tab part or add personal notes – all changes will be seen only by you.

Personal tabs can be accessed anytime from any device, even offline.
Learn more »
Give kudos to tab author, rate the tab!
1 2 3 4 5
comments
print report bad tab
guest
Wanna post a correction for this tab? Suggest correction