Oops, an error
Loading. Please wait.

Not Alone intro tab

244 views 1 this week
1 commentread comment
1 2 3 4 5
3 more votes to show rating
add to favorites
×
Save as Personal and add changes to this tab that will be seen only by you. Learn more ›
×
You can save this tab as Personal to edit and correct it or add notes. All changes will be seen only by you. Learn more »
launch autoscroll
font size
0
reset
how to read this tab
guitar tuner
edit
Autoscroll
slow
fast
+/-
esc
set tempo
stop
Author
E----------------------------------------------------------------|
B----------------------------------------------------------------|
G--------------------------7-8----------7h8-10-8-7---------------|
D------6-----------8---------------------------------------------|
A----6----------10-----------------------------------------------|
D--3----------6---------10-----------13--------------------------|

E----------------------------------------------------------------|
B-------------------------5-5-5-5---9-9-9-9---7-7-7-7------------|
G-------------------8--------------------------------------------|
D------6-----------8---------------------------------------------|
A----6----------10-----------------------------------------------|
D--3----------6--------------------------------------------------|

not sure on this part just sounds ok with the song (you can use
13 for 9, 11 for 7, and 9 for 5 all on the g string also)....
E----------------------------------------------------------------|
B---9-9-9-9---7-7-7-7---5-5-5-5----------------------------------|
G----------------------------------------------------------------|
D----------------------------------------------------------------|
A----------------------------------------------------------------|
D----------------------------------------------------------------|

tab for Not Alone by Home Grown, i watched a friend play it and then figured it out from 
so here is what i got. its only a little part of the intro but i like the way it sounds 
felt like postin it...later

            
            
Suggest correction
Creating personal tab
Creating personal tab
You can edit any tab online and save it as your Personal.

You can edit, replace or remove any tab part or add personal notes – all changes will be seen only by you.

Personal tabs can be accessed anytime from any device, even offline.
Learn more »
Give kudos to tab author, rate the tab!
1 2 3 4 5
comments
print report bad tab
1 comment total.
0 reply
TRX310R 15 May 28, 2004 08:00 PM

I screwed up some parts, this sounds better for the very beginning

E----------------------------------------------------------------
B----------------------------------------------------------------
G--------------------------7-8----------8s10-7-8-----------------
D------6-----------8-----------------------------8---------------
A----6----------10-----------------------------------------------
D--3----------6---------10-----------13--------------------------

and this part should be...

E----------------------------------------------------------------
B----5-5-5-5---9-9-9-9---7-7-7-7---5-5-5-5--(2x)------------------
G----------------------------------------------------------------
D----------------------------------------------------------------
A----------------------------------------------------------------
D----------------------------------------------------------------

guest
You may want to rate the tab now too:
select rating
Wanna post a correction for this tab? Suggest correction