Oops, an error
Loading. Please wait.

Surfer Girl tab

version 2
version 2

Whole song

  • This is the Original surfer girl song tabbed not the act your age one.

Interactive

40 views 3 this week
no commentswrite comment
1 2 3 4 5
3 more votes to show rating
add to favorites
×
Save as Personal and add changes to this tab that will be seen only by you. Learn more ›
×
You can save this tab as Personal to edit and correct it or add notes. All changes will be seen only by you. Learn more »
launch autoscroll
font size
0
reset
how to read this tab
guitar tuner
edit
Autoscroll
slow
fast
+/-
esc
set tempo
stop
About this tab version
This is the Original surfer girl song tabbed not the act your age one. Was this info helpful? Yes No
[Intro] 
First time does not get to the high E string, 2nd time does,      
e|---------------------------------------------------------------------------|
B|---3-----3----3---3-------3----3----3------3--------3----------------------|
G|----4-----4---------4-------4--------4-------4----------3------3-----3-----|
D|------------------------------------------------------------4-----4--------|
A|-2-----2----2---0------0------0--------------------------------------------|
E|-----------------------------------3-----3--------3-----2------2----2------|
                                |    
   On 2nd Time not sure if this V "0" is there at all or with the "4"
e|------------------------2--------------------------------2-----------------|
B|---3-----3----3---3-------3----3----3------3-------------2-----------------|
G|----4-----4---------4-------4--------4-------4-----------3-----------------|
D|---------------------------------------------------------4-----------------|
A|-2-----2----2---0------0------0--------------------------4-----------------|
E|-----------------------------------3-----3--------3------2-----------------|

[Verse]
e|-2----5-5---7-----3---2----------------------------------------------------|
B|-3----7-5---8-----3---2----------------------------------------------------|
G|-4----7-6---9-----4---3----------------------------------------------------|
D|-4----7-7---9-----5---4----------------------------------------------------|
A|-2----5-7---7-----5---4----------------------------------------------------|
E|--------5---------3---2----------------------------------------------------|

[1st Solo]
e|----------------------------------------|--------------------------------------|
B|-------------------------------7-8-7---|---------------------------------------|
G|-9p7p6---------7\6---7-6-----9----------|--------------------------------------|
D|------7-7/9-9--------------9------------|--------------------------------------|
A|----------------------------------------|--------------------------------------|
E|----------------------------------------|--------------------------------------|

[Solo Over Verse/rythym]   
e|-----------------------------|---------------------------------14-12---12-------------13--------|
B|-----------------------------|--------------------------------------15-----12-15-15-15---15--14-|
G|-----6p7-9-7-6-7--6----------|-11-9-----------------9-11-12-11----------------------------------|
D|--9-----------------7/9------|-------12-9--12-11-9----------------------------------------------|
A|-------------------------10-9|------------------------------------------------------------------|
E|-----------------------------|------------------------------------------------------------------|

   "Some MORE"      Then  back to normal verse
e|---------------------------------------------------------------------------|
B|---------------------------------------------------------------------------|
G|---------------------------------------------------------------------------|
D|----5--5--5---4------------------------------------------------------------|
A|----5--5--5---4------------------------------------------------------------|
E|----3--3--3---2------------------------------------------------------------|


   Solo after "she's so good"
e|-14--------------14----14-15-12-14---12------------------------------------------|
B|---15-12---12--15------------------15---14--15-14-15\12--------------------7-8-7-|
G|--------11----------------------------------------------12-11-12\9-7-6---9-------|
D|-----------------------------------------------------------------------9---------|
A|---------------------------------------------------------------------------------|
E|---------------------------------------------------------------------------------|

[Pre Chorus] 
(rythym Guitar)
   "On a ukelele" (each # beat is down stroke)
   1 e & a 2 e & a   Play After/before Power chords
e|-3-3---3---3-3-------------------------------------------------------------|
B|-3-3---3---3-3-------------------------------------------------------------|
G|-4-4---4---4-4-------------------------------------------------------------|
D|-5-5---5---5-5-------------------------------------------------------------|
A|-5-5---5---5-5-------------------------------------------------------------|
E|-3-3---3---3-3------------------------------------------------=------------|

[Pre Chorus] 
lead guitar
    "I don't know what had ha.." "she was sleeping n.."
e|------------------------------|--------------------------------------------|
B|------------------------------|--------------------------------------------|
G|------------------------------|--------------------------------------------|
D|--5x--5x---5------------------|--5-----------------------------------------|
A|--5x--5x---5------------------|--5-----------------------------------------|
E|--2x--2x---2------------------|--2----(8 TIMES)----------------------------|
  (#x = Palm Mute)


First time the first chord has an embolishment by going down then its normal.
e|---------------------------------------------------------------------------|
B|---------------------------------------------------------------------------|
G|-4-2-4-4-------7-----4-----7-----------------------------------------------|
D|-4-2-4-4---5---7--7--4--5--7--7--------------------------------------------|
A|-2-0-2-2---5---5--7--2--5--5--7--------------------------------------------|
E|-----------3------5-----3-----5--------------------------------------------|
  (solo over rythym guitar)
e|----------------------------------------------------------------------------------|
B|----------------------------------------------------------7--7--------------------|
G|---------------------------------------------9-9b11-9p7--------9--7---7---7-9b11--|
D|-9-12-7 7/9-----------------------------7-7h9-----------9------------9---9--------|
A|-----------7-5/~7-7-7\5-----------7h9---------------------------------------------|
E|------------------------7---7h10--------------------------------------------------|

[VERSE rythym guitar]

[Pre Chorus] (rythym Guitar)
   1 e & a 2 e & a   Play After/before Power chords
e|-3-3---3---3-3-------------------------------------------------------------|
B|-3-3---3---3-3-------------------------------------------------------------|
G|-4-4---4---4-4-------------------------------------------------------------|
D|-5-5---5---5-5-------------------------------------------------------------|
A|-3-3---5---3-5-------------------------------------------------------------|

[Lead guitar pre chorus]
e|------------------------------|--------------------------------------------|
B|------------------------------|--------------------------------------------|
G|------------------------------|--------------------------------------------|
D|--5x--5x---5------------------|--5-----------------------------------------|
A|--5x--5x---5------------------|--5-----------------------------------------|
E|--2x--2x---2------------------|--2----(8 TIMES)----------------------------|
  (#x = Palm Mute)

First time the first chord has an embolishment by going down then its normal.
e|---------------------------------------------------------------------------|
B|---------------------------------------------------------------------------|
G|-4-2-4-4-------7-----4-----7-----------------------------------------------|
D|-4-2-4-4---5---7--7--4--5--7--7--------------------------------------------|
A|-2-0-2-2---5---5--7--2--5--5--7--------------------------------------------|
E|-----------3------5-----3-----5--------------------------------------------|

[Interlude]
e|---------------------------------------------------------------------------|
B|---------------------------------------------------------------------------|
G|---------------------------------------------------------------------------|
D|-4--4-pm-pm-pm--5---4-4-pm-pm-pm--5---4--4-pm-pm-pm--5---4--4-pm-pm-pm-7--9|
A|-4--4-pm-pm-pm--5---4-4-pm-pm-pm--5---4--4-pm-pm-pm--5---4--4-pm-pm-pm-7--9|
E|-2--2-pm-pm-pm--3---2-2-pm-pm-pm--3---2--2-pm-pm-pm--3---2--2-pm-pm-pm-5--7|
  [Rythym guitar solo]
e|---------------------------------------------------------------------------|
B|----------------------5----------------------------------------------------|
G|----------------4-6-7---7-6-7-6---4----------------------------------------|
D|----------4-5-7-----------------7--------------------------------X2--------|
A|----4-5-7------------------------------2-4-5-4-2-4-2-0-0-------------------|
E|--7----------------------------------3-------------------2-----------------|
   [With the rythym guitar] listen to song to time it
e|---------------------------------------------------------------------------|
B|---------------------------------------------------------------------------|
G|---------------------------------------------------------------------------|
D|-5-----7---4--9------5---7---4---------------------------------------------|
A|-5-----7---4--9------5---7---4---------------------------------------------|
E|-3-----5---2--7------3---5---2---------------------------------------------|

[Verse] 
"here we go"
e|--2---7---5--5-------------------------------------------------------------|
B|--3---8---7--5-------------------------------------------------------------|
G|--4---9---7--6-------------------------------------------------------------|
D|--4---9---7--7-------------------------------------------------------------|
A|--2---7---5--7-------------------------------------------------------------|
E|-------------5-------------------------------------------------------------|

[Аinal solo]
e|-----------------------------------------12b13-12-10-12---------14----------------------|
B|-------------------------------------------------------------15----15-------------------|
G|------------9b11-11-9-----9-------------------------------16---------16-----------------|
D|------9--12------------12---12--11--9------------------------------------16-14----14b16-|
E|-------------------------------------------------------------------------------17-------|
E|----------------------------------------------------------------------------------------|

e|-------------------------------------------------------------------------------|
B|------16p14p12-----------------------------------------------------------------|
G|---16--------------------------------------------------------------------------|
D|-------------------------------------------------------------------------------|
A|-------------------------------------------------------------------------------|
E|-------------------------------------------------------------------------------|

e|------------------------12b13-14-14--14-14-12----------------------------------|
B|---------------------15-----------------------15-12----------------------------|
G|------16p14p12----16-----------------------------------------------------------|
D|--16---------------------------------------------------------------------------|
A|-------------------------------------------------------------------------------|
E|-------------------------------------------------------------------------------|

[Final Power chords chord progression by lead guitar]
(MAKE SURE TO HEAD BANG VIOLENTLY) 
e|---------------------------------------------------------------------------|
B|---------------------------------------------------------------------------|
G|-4--------5----------------------------------------------------------------|
D|-4--------5----7--4--------------------------------------------------------|
A|-2--------5----7--4--------------------------------------------------------|
E|----------3----5--2--------------------------------------------------------|
  
   (Rythym guitar after power chord progression)
e|-2-------------------------------------------------------------------------|
B|-3-------------------------------------------------------------------------|
G|-4-------------------------------------------------------------------------|
D|-4-------------------------------------------------------------------------|
A|-2-------------------------------------------------------------------------|
E|---------------------------------------------------------------------------|
   (Power chords after rythym) 
e|---------------------------------------------------------------------------|
B|---------------------------------------------------------------------------|
G|---------------------------------------------------------------------------|
D|-4--------------------7--------------9-------------------------------------|
A|-4--------------------7--*8----------9---Let Ring--------------------------|
E|-2--------------------5--------------7-------------------------------------|



************************************

| p  Pull-off
| /  Slide up
| \  Slide down
| x  Dead note
| b  Bend
| h  Hammer-on
 

************************************

            
            
Suggest correction
Creating personal tab
Creating personal tab
You can edit any tab online and save it as your Personal.

You can edit, replace or remove any tab part or add personal notes – all changes will be seen only by you.

Personal tabs can be accessed anytime from any device, even offline.
Learn more »
Give kudos to tab author, rate the tab!
1 2 3 4 5
comments
print report bad tab
guest
You may want to rate the tab now too:
select rating
Wanna post a correction for this tab? Suggest correction