Oops, an error
Loading. Please wait.

Doo Dah tab

version 1
version 1

Whole song

  • This tab includes pieces of the song that were lac... Show more
4,817 views 24 this week
2 commentsread comments
1 2 3 4 5
x 7
add to favorites
×
Save as Personal and add changes to this tab that will be seen only by you. Learn more ›
×
You can save this tab as Personal to edit and correct it or add notes. All changes will be seen only by you. Learn more »
launch autoscroll
font size
0
reset
how to read this tab
guitar tuner
edit
Autoscroll
slow
fast
+/-
esc
set tempo
stop
Author
Difficulty
*I didn't tab how many times you strum each chord. Figure it out by listening to the song*

-------------------------------------------------------------------------------
                             Doo Dah - Homeshake
-------------------------------------------------------------------------------
Tabbed by: Ron Hambone


Tuning: Standard

Verse Chords:
e|----0-----0---0----|
B|----5-----3---1----|
G|----4-----2---2----| Repeat 2x
D|----5-----3---3----|
A|-------------------|
E|-------------------|

Chorus:
e|---15----------15----15------------15----17----------17----15------------|
B|------17-15-17----17----17-15-17------17----17-15-17----17----17-15-17---|
G|-------------------------------------------------------------------------|
D|-------------------------------------------------------------------------|
A|-------------------------------------------------------------------------|
E|-------------------------------------------------------------------------|

e|------------------13-12------------|
B|---15-13-13-12-13-------12-10-12---|
G|-----------------------------------|
D|-----------------------------------|
A|-----------------------------------|
E|-----------------------------------|

Verse Chords:
e|----0-----0---0----|
B|----5-----3---1----|
G|----4-----2---2----| Repeat 2x
D|----5-----3---3----|
A|-------------------|
E|-------------------|

Chorus:
e|---15----------15----15------------15----17----------17----15------------|
B|------17-15-17----17----17-15-17------17----17-15-17----17----17-15-17---|
G|-------------------------------------------------------------------------|
D|-------------------------------------------------------------------------|
A|-------------------------------------------------------------------------|
E|-------------------------------------------------------------------------|

e|---15-13----------13-12----------12---|
B|---------13-12-13-------12-10-12------|
G|--------------------------------------|
D|--------------------------------------|
A|--------------------------------------|
E|--------------------------------------|

e|---15----------15----15------------15-15----17----------17----15------------|
B|------17-15-17----17----17-15-17---------17----17-15-17----17----17-15-17---|
G|----------------------------------------------------------------------------|
D|----------------------------------------------------------------------------|
A|----------------------------------------------------------------------------|
E|----------------------------------------------------------------------------|

e|---15b16br15-13----------13-12------------|
B|----------------13-12-13-------12-10-12---|
G|------------------------------------------|
D|------------------------------------------|
A|------------------------------------------|
E|------------------------------------------|

Outro Chords:
e|----0-----0----|
B|----5-----7----|
G|----4-----5----| 
D|----5-----7----|
A|---------------|
E|---------------|



************************************

| /   slide up
| \   slide down
| h   hammer-on
| p   pull-off
| ~   vibrato
| +   harmonic
| x   Mute note
| b   Bend
| pb  Pre-bend
| br  Bend release
| pbr Pre-bend release
| brb Bend release bend

************************************

            
            
Suggest correction
Creating personal tab
Creating personal tab
You can edit any tab online and save it as your Personal.

You can edit, replace or remove any tab part or add personal notes – all changes will be seen only by you.

Personal tabs can be accessed anytime from any device, even offline.
Learn more »
comments
print report bad tab
2 comments total.
0 reply
jahstin 10 Jun 11, 2015 08:46 PM

can you tab Okay by Homeshake please

guest
You may want to rate the tab now too:
select rating
Wanna post a correction for this tab? Suggest correction