Oops, an error
Loading. Please wait.

Doo Dah tab

version 2
version 2

Whole song

  • This tab includes pieces of the song that were lac... Show more
733 views 3 this week
no commentswrite comment
1 2 3 4 5
2 more votes to show rating
add to favorites
×
Save as Personal and add changes to this tab that will be seen only by you. Learn more ›
×
You can save this tab as Personal to edit and correct it or add notes. All changes will be seen only by you. Learn more »
launch autoscroll
font size
0
reset
how to read this tab
guitar tuner
edit
Autoscroll
slow
fast
+/-
esc
set tempo
stop
Author
Difficulty
About this tab version
This tab includes pieces of the song that were lacking in the original, such as the chorus chords or verse tab. It also features a more complete and organized setup. Was this info helpful? Yes No
-------------------------------------------------------------------------------
                             Doo Dah - Homeshake
-------------------------------------------------------------------------------
Tabbed by: Noah Moody
E-mail: Noahmoody1228@gmail.com

Tuning: STANDARD


[Intro/Verse]

e|------------|
B|------------|
G|-9----------|(x8)
D|---9-7-9-7--|
A|------------|
E|------------|

e|--------------------------|
B|--------------------------|
G|-12-9---9------10--7---7--|
D|------9--------------7----|
E|--------------------------|

e|------------|
B|------------|
G|-9----------|(x6)
D|---9-7-9-7--|
A|------------|
E|------------|

e|--------------------------|
B|--------------------------|
G|-12-9---9------10--7---7--|
D|------9--------------7----|
E|--------------------------|

e|------------|
B|------------|
G|-9----------|(x2)
D|---9-7-9-7--|
A|------------|
E|------------|


[Chorus]

e|-15-----------15----15------------15----17-----------17----15-----------|
B|----17-15-17-----17----17-15-17------17----17-15-17-----17----17-15-17--|
G|------------------------------------------------------------------------|
D|------------------------------------------------------------------------|
A|------------------------------------------------------------------------|
E|------------------------------------------------------------------------|

e|-15-13------------13-12-----------|
B|--------13-12-13--------12-10-12--|
G|----------------------------------|
D|----------------------------------|
A|----------------------------------|
E|----------------------------------|


[Verse 2]

e|------------|
B|------------|
G|-9----------|(x8)
D|---9-7-9-7--|
A|------------|
E|------------|

e|--------------------------|
B|--------------------------|
G|-12-9---9------10--7---7--|
D|------9--------------7----|
E|--------------------------|


[Chorus]

e|-15-----------15----15------------15----17-----------17----15-----------|
B|----17-15-17-----17----17-15-17------17-----17-15-17----17----17-15-17--|
G|------------------------------------------------------------------------|
D|------------------------------------------------------------------------|
A|------------------------------------------------------------------------|
E|------------------------------------------------------------------------|

e|-15-13------------13-12-----------|
B|--------13-12-13--------12-10-12--|
G|----------------------------------|
D|----------------------------------|
A|----------------------------------|
E|----------------------------------|

e|-12--15------------15----15------------15-15----17-----------17----15-----------|
B|---------17-15-17-----17----17-15-17---------17-----17-15-17----17----17-15-17--|
G|--------------------------------------------------------------------------------|
D|--------------------------------------------------------------------------------|
A|--------------------------------------------------------------------------------|
E|--------------------------------------------------------------------------------|

e|-15b16br15--13------------13-12----------|
B|----------------13-12-13-------12-10-12--|
G|-----------------------------------------|
D|-----------------------------------------|
A|-----------------------------------------|
E|-----------------------------------------|


[Outro]

e|------------|
B|------------|
G|-9----------|(x2)
D|---9-7-9-7--|
A|------------|
E|------------|

e|--------------------|
B|--------------------|
G|-9-----------9--11--|
D|---9-7-9-7----------|
A|--------------------|
E|--------------------|


Chords Used:

G6:      x.x.5.4.5.0
Asus4/F: x.x.3.2.3.0
FM7:     x.x.3.2.1.0
D6sus4:  x.x.x.4.3.3
AM6:     x.x.7.5.7.0


[Intro]

G6


[Verse 1]

G6
Holy moly, get a load of this cat
                                            Asus4/F
Just woke up and pawing for a little scratch
         FM7                      G6
These two, they're a perfect match

I dipped out but only for a minute
                                                Asus4/F
Came right back, but she was hurt; couldn't laugh
         FM7            G6
It's blurry and overcast


[Chorus]

Asus4/F  FM7  G6  Asus4/F  Asus4/F  D6sus4


[Verse 2]

G6

G6
She's spaced out, now everything is soaked off
                                          Asus4/F
All I hear is crying and it marks her eyes
       FM7             G6
All over again, goodbye
   Asus4/F    FM7              G6
Alright, my baby is outta sight


[Chorus]

Asus4/F  FM7  G6  Asus4/F  Asus4/F  D6sus4

Asus4/F  FM7  G6  Asus4/F  Asus4/F  D6sus4


[Outro]

G6 AM6



************************************

| b   Bend
| br  Bend release

************************************

            
            
Suggest correction
Creating personal tab
Creating personal tab
You can edit any tab online and save it as your Personal.

You can edit, replace or remove any tab part or add personal notes – all changes will be seen only by you.

Personal tabs can be accessed anytime from any device, even offline.
Learn more »
Give kudos to tab author, rate the tab!
1 2 3 4 5
comments
print report bad tab
guest
You may want to rate the tab now too:
select rating
Wanna post a correction for this tab? Suggest correction