Oops, an error
Loading. Please wait.

Getting Down tab

775 views 15 this week
1 commentread comment
1 2 3 4 5
2 more votes to show rating
add to favorites
×
Save as Personal and add changes to this tab that will be seen only by you. Learn more ›
×
You can save this tab as Personal to edit and correct it or add notes. All changes will be seen only by you. Learn more »
launch autoscroll
font size
0
reset
how to read this tab
guitar tuner
edit
Autoscroll
slow
fast
+/-
esc
set tempo
stop
"DIE!!!"
First tab I made on the 6 string. Feel free to correct me.


Rhythm Guitar



Verse

e ----------------
B ------------0----
G -----------4-----
D ----------------
A ----------------
E ----------------


Chorus
Am7 Bbm7 Bm7 
e 5-5-6-9-------------
B 5-5-6-9-------------
G 5-5-6-9-------------
D 5-5-6-9------------
A 7-7-8-9-------------
E 5-5-6-7-------------


Lead Guitar

Verse
e ------------------
B ------------------
G 9s11--9--7--------
D -----------9------
A ------------------
E ------------------


 1st Time
e --5-----5-----5-----5-----5------
B ----5-----5-----5-----5-----5----
G 5-----5-----5-----5-----5-----5--
D ---------------------------------
A ---------------------------------
E ----------------------------------

 2nd
e --5-----5-----5-----5-----5h7p5-------
B ----5-----5-----5-----5---------5-----
G 5-----5-----5-----5-----5---------5---
D --------------------------------------
A --------------------------------------
E --------------------------------------

3rd (After Chorus)
e --5-----5-----5-----5h7p5-----5------
B ----5-----5-----5---------5-----5----
G 5-----5-----5-----5---------5-----5--
D -------------------------------------
A -------------------------------------
E -------------------------------------

4th
e --5-----5-----5h7p5-----5----5h7p5-----
B ----5-----5---------5-----5--------5---
G 5-----5-----5---------5-----5--------5-
D ---------------------------------------
A ---------------------------------------
E ---------------------------------------

Chorus
e ----------10------12s14-12-10------(17)
B 10~-11-12----12-10---------------------
G ---------------------------------------
D ---------------------------------------
A ---------------------------------------
E ---------------------------------------



Bass

Verse


G ------------------
D ------------------
A ----0-2-----------
E 0-3---------------

G -------------------
D -------------------
A -------------------
E 7-5---5---7-5---5--


Chorus



G -------------------------
D -------------------------
A --------5----------------
E 5-5-6-7----5-5--5-5------






Suggest correction
Creating personal tab
Creating personal tab
You can edit any tab online and save it as your Personal.

You can edit, replace or remove any tab part or add personal notes – all changes will be seen only by you.

Personal tabs can be accessed anytime from any device, even offline.
Learn more »
Give kudos to tab author, rate the tab!
1 2 3 4 5
comments
print report bad tab
1 comment total.
0 reply
HecklerK 87 Dec 29, 2015 07:43 AM

Bass
Verse

E -0-3-5----------
A -------2--------
D ----------------
G ----------------

E 7--5-5--7--5-5-
A ---------------
D ---------------
G ---------------

Chorus

E 5-5-6-7---7-5-7--7-7--7-7
A ---------5---------------
D -------------------------
G -------------------------

guest
You may want to rate the tab now too:
select rating
Wanna post a correction for this tab? Suggest correction