Oops, an error
Loading. Please wait.

Home At Last tab

3,148 views 96 this week
no commentswrite comment
1 2 3 4 5
x 3
add to favorites
×
Save as Personal and add changes to this tab that will be seen only by you. Learn more ›
×
You can save this tab as Personal to edit and correct it or add notes. All changes will be seen only by you. Learn more »
launch autoscroll
font size
0
reset
how to read this tab
guitar tuner
edit
Autoscroll
slow
fast
+/-
esc
set tempo
stop
Author
Difficulty
-------------------------------------------------------------------------------
                           HOME AT LAST - HOMESHAKE
-------------------------------------------------------------------------------
Tabbed by: Noah Moody
E-mail: Noahmoody1228@gmail.com

Tuning: EADGBe STANDARD

Tab is right. Will take suggestions for any chords improvements.


[Intro]

e|-10b11-12r10-----10b11-12r10---------10b11-10b11-------------8-10b11-12r10-----|
B|-------------8-----------------------------------12------8h10------------------|
G|-----------------------------10--------------------------------------------10--|
D|-------------------------------------------------------------------------------|
A|-------------------------------------------------------------------------------|
E|-------------------------------------------------------------------------------|


[After the first Em7 in the first Pre-Chorus. Can be played from the E7 chord]

e|-----------|
B|-----------|
G|-12--------|
D|---12------|
A|-----10-8--|
E|-----------|


[Chorus]

e|-8-10b11-12r10------8---10b11-12r10-----10b11-10b11-------------8-10b11-12r10-----|
B|---------------8-----10-----------------------------12------8h10------------------|
G|------------------------------------10----------------------------------------10--|
D|----------------------------------------------------------------------------------|
A|----------------------------------------------------------------------------------|
E|----------------------------------------------------------------------------------|


[After the first Em7 in the second Pre-Chorus. Can be played from the E7 chord]

e|-----------|
B|-----------|
G|-12--------|
D|---12------|
A|-----10-8--|
E|-----------|


[Outro] 

(The X's are where the chords are played to help you better understand where to play each part)

e|-x----------x----------x-----------x----------x-----------x----------x---------x--|
B|-x-------8--x----------x---------8-x----------x---------8-x----------x-------8-x--|
G|-x-----7----x----------x-------7---9----------x-------7---9----------x-----7---9--|
D|-x---7------x----------x---7-9-----x----------x---7-9-----x----------x---7-----x--|
A|-x----------x----------x-----------x----------x-----------x----------x---------x--|
E|-x----------x----------x-----------x----------x-----------x----------x---------x--|

e|------7-----10-8------------------------------------------------------------------------------------------|
B|-8------8---------10b11---7-7-7-7-7-----8h10------------------------10b11-11r10--7-7-7-7-8----------------|
G|---7------9-------------------------7h9------------------------7-9-------------------------9-----------7--|
D|----------------------------------------------9p7-----------7h9------------------------------9-7-7h9------|
A|----------------------------------------------------------------------------------------------------------|
E|----------------------------------------------------------------------------------------------------------|


Chords Used:

F:       x.x.3.2.1.1

Am#5/F:  x.x.3.2.1.x

Cmaj7/G: 3.x.5.4.5.x

G:       3.x.5.4.3.x

Cmaj7:   x.3.5.4.5.x

E7:      x.7.9.9.9.10

Am7:     5.7.5.5.5.8

Amin7:   5.7.5.5.5.5

Em7:     x.10.12.12.12.0

F#:      x.9.11.11.11.0

Emin7:   x.7.9.7.8.7


[Intro]

F  Cmaj/G  G  Cmaj7  Am#5/F

F  Cmaj/G  G  Cmaj7  Am#5/F  F


[Verse 1]

            Cmaj/G   
Look at this place
G   Cmaj7                Am#5/F   F
It's not how it used to seem
                Cmaj/G 
They're all the same
G    Cmaj7       Am#5/F    E7
But living in a dream


[Pre-Chorus]

        Am7     
All my running
Amin7     Am7        Em7     E7
I've just got to get away
           Am7     Amin7  Am7         
Sure, it's fun and everything
             Em7    Em7 
But I won't stay


[Chorus]

F# F
So home
   Cmaj/G  
At last
G   Cmaj7
I'm home
   Am#5/F    
At last

F  Cmaj/G  G  Cmaj7  Am#5/F  F


[Verse 2]

        Cmaj/G
So I forgot
G  Cmaj7           Am#5/F   F
It didn't change a thing
           Cmaj/G
Miss her a lot
G   Cmaj7       Am#5/F   E7
She kept us company


[Pre-Chorus]

       Am7
All my hiding
Amin7    Am7           Em7       E7
I'm just trying to get it out
        Am7   
Sure is testing
Amin7      Am7           E7
But that's not what it's about


[Outro]

   Amin7   Emin7
So home

Amin7  Emin7 x8



************************************

| h   Hammer-on
| p   Pull-off
| r   Release
| b   Bend

************************************
Suggest correction
Creating personal tab
Creating personal tab
You can edit any tab online and save it as your Personal.

You can edit, replace or remove any tab part or add personal notes – all changes will be seen only by you.

Personal tabs can be accessed anytime from any device, even offline.
Learn more »
Give kudos to tab author, rate the tab!
1 2 3 4 5
comments
print report bad tab
guest
You may want to rate the tab now too:
select rating
Wanna post a correction for this tab? Suggest correction