Oops, an error
Loading. Please wait.

I Dont Wanna tab

version 2
version 2

Whole song

1,681 views 24 this week
no commentswrite comment
1 2 3 4 5
x 8
add to favorites
×
Save as Personal and add changes to this tab that will be seen only by you. Learn more ›
×
You can save this tab as Personal to edit and correct it or add notes. All changes will be seen only by you. Learn more »
launch autoscroll
font size
0
reset
how to read this tab
guitar tuner
edit
Autoscroll
slow
fast
+/-
esc
set tempo
stop
Author
Difficulty
       -------------------------------------------------------------------------------
                                   I Don't Wanna - Homeshake
       -------------------------------------------------------------------------------

Tuning: Standard 

I couldn't find an accurate tab so I decided to make this one with both guitars tabbed out. 
Hope you all enjoy


Intro:
                                                              
 Guitar 1(lead)                                               
|-----------------------|------------------------|        |-------------------|--------6---------8---7---|   
|------7b-6-------------|--------11---------13---|        |-----7b-6----------|---6/8-------8/10-----9---|
|---5--------6--/--8----|--10/12------12/14------|x3 then |--5---------6--/8--|----------------------8---|
|-----------------------|------------------------|        |-------------------|--------------------------|
|-----------------------|------------------------|        |-------------------|--------------------------|
|-----------------------|------------------------|        |-------------------|--------------------------|
|                                                         |
|                                                         |                                           
|Guitar 2(chords)                                         |         
|-----------------------|------------------------|        |-------------------|----------------------4---|
|--1--------2-----------|--3-----------4---------|        |--1----------2-----|--3-----------4-------4---|
|--1--------4-----------|--3-----------2---------|x3 then |--1----------4-----|--3-----------2-------4---|
|--1--------3-----------|--3-----------1---------|        |--1----------3-----|--3-----------1-------2---|
|--x--------x-----------|--3-----------x---------|        |--x----------x-----|--3-----------x-----------|
|--1--------3-----------|--------------1---------|        |--1----------3-----|--------------1-----------|
  Fm7       G7b5          Bb/C         F7                    Fm7       G7b5     Bb/C         F7    Emaj7



Verse:


|--6-----6--------6--------6---------------------|------3--------3-------3---------------------|
|--8--------8--------8--------8------------------|---------5--------5-------5------------------|
|--7-----------7--------7--------7---------------|------------4-------4-------4----------------|
|------------------------------------------------|---------------------------------------------|
|------------------------------------------------|---------------------------------------------|
|------------------------------------------------|---------------------------------------------|
|
|
|--3---------------------------------------------|---------------------------------------------|
|--3----------------------------------------6----|--5-------------------------------------2----|
|--3----------------------------------------5----|--4-------------------------------------3----|
|--1----------------------------------------6----|--5-------------------------------------2----|
|-------------------------------------------4----|--3-------------------------------------x----|
|------------------------------------------------|----------------------------------------2----|
  Ebmaj7                                  Dbmaj7   Cmaj7                                 Gb7
 


|--------1--------1--------1---------------------|---------1--------1----------3---------------|
|-----------1--------1--------1------------------|------------1--------1------------------ ----|
|--------------1--------1--------1---------------|---------------1--------1--------------------|
|------------------------------------------------|---------------------------------------------|
|------------------------------------------------|---------------------------------------------|
|------------------------------------------------|---------------------------------------------|
|
|
|
|------------------------------------------------|---3------------------------------------4----|
|---1--------------------------------------------|----------------------------------------4----|
|---1--------------------------------------------|----------------------------------------4----|
|---1--------------------------------------------|----------------------------------------2----|
|---x--------------------------------------------|---------------------------------------------|
|---1--------------------------------------------|---------------------------------------------|
   Fm7                                            Fm9                                    Emaj7




|--------6--------6--------6---------------------|------3--------3-------3---------------------|
|-----------8--------8--------8------------------|---------5--------5-------5------------------|
|--------------7--------7--------7---------------|------------4-------4-------4----------------|
|------------------------------------------------|---------------------------------------------|
|------------------------------------------------|---------------------------------------------|
|------------------------------------------------|---------------------------------------------|
|
|
|--3---------------------------------------------|---------------------------------------------|
|--3----------------------------------------6----|--5-------------------------------------2----|
|--3----------------------------------------5----|--4-------------------------------------3----|
|--1----------------------------------------6----|--5-------------------------------------2----|
|-------------------------------------------4----|--3-------------------------------------x----|
|------------------------------------------------|----------------------------------------2----|
  Ebmaj7                                  Dbmaj7   Cmaj7                                 Gb7



|--------1--------1--------1---------------------|---------------------------3-----------------|
|-----------1--------1--------1------------------|-------------------------------------- ------|
|--------------1--------1--------1---------------|---------------------------------------------|
|------------------------------------------------|---------------------------------------------|
|------------------------------------------------|---------------------------------------------|
|------------------------------------------------|---------------------------------------------|
|
|
|
|------------------------------------------------|---3-----------------------------------------|
|---1--------------------------------------------|---------------------------------------------|
|---1--------------------------------------------|---------------------------------------------|
|---1--------------------------------------------|---------------------------------------------|
|---x--------------------------------------------|---------------------------------------------|
|---1--------------------------------------------|---------------------------------------------|
   Fm7                                            Fm9   


 
Chorus:

                                              
|-----------------------|------------------------|        |-------------------|--------6---------8---7---| 
|------7b-6-------------|--------11---------13---|        |-----7b-6----------|---6/8-------8/10-----9---|
|---5--------6--/--8----|--10/12------12/14------|x3 then |--5---------6--/8--|----------------------8---| 
|-----------------------|------------------------|        |-------------------|--------------------------|
|-----------------------|------------------------|        |-------------------|--------------------------|
|-----------------------|------------------------|        |-------------------|--------------------------|
|                                                         |
|                                                         |
|Guitar 2(chords)                                         |
|-----------------------|------------------------|        |-------------------|----------------------4---|
|--1--------2-----------|--3-----------4---------|        |--1----------2-----|--3-----------4-------4---|
|--1--------4-----------|--3-----------2---------|x3 then |--1----------4-----|--3-----------2-------4---|
|--1--------3-----------|--3-----------1---------|        |--1----------3-----|--3-----------1-------2---|
|--x--------x-----------|--3-----------x---------|        |--x----------x-----|--3-----------x-----------|
|--1--------3-----------|--------------1---------|        |--1----------3-----|--------------1-----------|
  Fm7       G7b5          Bb/C         F7                    Fm7       G7b5     Bb/C         F7    Emaj7



Verse:


|--6-----6--------6--------6---------------------|------3--------3-------3---------------------|
|--8--------8--------8--------8------------------|---------5--------5-------5------------------|
|--7-----------7--------7--------7---------------|------------4-------4-------4----------------|
|------------------------------------------------|---------------------------------------------|
|------------------------------------------------|---------------------------------------------|
|------------------------------------------------|---------------------------------------------|
|
|
|--3---------------------------------------------|---------------------------------------------|
|--3----------------------------------------6----|--5-------------------------------------2----|
|--3----------------------------------------5----|--4-------------------------------------3----|
|--1----------------------------------------6----|--5-------------------------------------2----|
|-------------------------------------------4----|--3-------------------------------------x----|
|------------------------------------------------|----------------------------------------2----|
  Ebmaj7                                  Dbmaj7   Cmaj7                                 Gb7
 


|--------1--------1--------1---------------------|---------1--------1----------3---------------|
|-----------1--------1--------1------------------|------------1--------1------------------ ----|
|--------------1--------1--------1---------------|---------------1--------1--------------------|
|------------------------------------------------|---------------------------------------------|
|------------------------------------------------|---------------------------------------------|
|------------------------------------------------|---------------------------------------------|
|
|
|
|------------------------------------------------|---3------------------------------------4----|
|---1--------------------------------------------|----------------------------------------4----|
|---1--------------------------------------------|----------------------------------------4----|
|---1--------------------------------------------|----------------------------------------2----|
|---x--------------------------------------------|---------------------------------------------|
|---1--------------------------------------------|---------------------------------------------|
   Fm7                                            Fm9                                   Emaj7




|--------6--------6--------6---------------------|------3--------3-------3---------------------|
|-----------8--------8--------8------------------|---------5--------5-------5------------------|
|--------------7--------7--------7---------------|------------4-------4-------4----------------|
|------------------------------------------------|---------------------------------------------|
|------------------------------------------------|---------------------------------------------|
|------------------------------------------------|---------------------------------------------|
|
|
|--3---------------------------------------------|---------------------------------------------|
|--3----------------------------------------6----|--5-------------------------------------2----|
|--3----------------------------------------5----|--4-------------------------------------3----|
|--1----------------------------------------6----|--5-------------------------------------2----|
|-------------------------------------------4----|--3-------------------------------------x----|
|------------------------------------------------|----------------------------------------2----|
  Ebmaj7                                  Dbmaj7   Cmaj7                                 Gb7



|--------1--------1--------1---------------------|---------------------------3-----------------|
|-----------1--------1--------1------------------|-------------------------------------- ------|
|--------------1--------1--------1---------------|---------------------------------------------|
|------------------------------------------------|---------------------------------------------|
|------------------------------------------------|---------------------------------------------|
|------------------------------------------------|---------------------------------------------|
|
|
|
|------------------------------------------------|---3-----------------------------------------|
|---1--------------------------------------------|---------------------------------------------|
|---1--------------------------------------------|---------------------------------------------|
|---1--------------------------------------------|---------------------------------------------|
|---x--------------------------------------------|---------------------------------------------|
|---1--------------------------------------------|---------------------------------------------|
   Fm7                                            Fm9




Chorus:                                                   Outro:
                                                         
|-----------------------|------------------------|        |-------------------|----------------------15--|   
|------7b-6-------------|--------11---------13---|        |-----7b-6----------|--------11--------13------|
|---5--------6--/--8----|--10/12------12/14------|x3 then |--5---------6--/8--|--10/12-----12/14---------|
|-----------------------|------------------------|        |-------------------|--------------------------|
|-----------------------|------------------------|        |-------------------|--------------------------|
|-----------------------|------------------------|        |-------------------|--------------------------|
|                                                         |
|                                                         |
|                                                         |
|-----------------------|------------------------|        |-------------------|-------------------------|
|--1--------2-----------|--3-----------4---------|        |--1----------2-----|--3-----------4----------|      
|--1--------4-----------|--3-----------2---------|x3 then |--1----------4-----|--3-----------2----------|      
|--1--------3-----------|--3-----------1---------|        |--1----------3-----|--3-----------1----------|      
|--x--------x-----------|--3-----------x---------|        |--x----------x-----|--3-----------x----------|      
|--1--------3-----------|--------------1---------|        |--1----------3-----|--------------1----------|     
  Fm7       G7b5          Bb/C         F7                    Fm7       G7b5     Bb/C         F7 


Tabbed by Trystan H
Suggest correction
Creating personal tab
Creating personal tab
You can edit any tab online and save it as your Personal.

You can edit, replace or remove any tab part or add personal notes – all changes will be seen only by you.

Personal tabs can be accessed anytime from any device, even offline.
Learn more »
comments
print report bad tab
guest
You may want to rate the tab now too:
select rating
Wanna post a correction for this tab? Suggest correction