Oops, an error
Loading. Please wait.

See Ya bass

788 views 1 this week
2 commentsread comments
1 2 3 4 5
x 3
add to favorites
×
Save as Personal and add changes to this tab that will be seen only by you. Learn more ›
×
You can save this tab as Personal to edit and correct it or add notes. All changes will be seen only by you. Learn more »
launch autoscroll
font size
0
reset
guitar tuner
edit
Autoscroll
slow
fast
+/-
esc
set tempo
stop
Author
Difficulty
-------------------------------------------------------------------------------
                                SEE YA - HOMESHAKE
-------------------------------------------------------------------------------
Tabbed by: Evan
E-mail: 

This is some vintage bad stuff.

The tabs are listed as parts. At the very bottom is the order.

Tuning: Standard

Groove
G|--------------------|
D|-------------0------|
A|---03-3-------2-0---|
E|1---------1---------|

Verse
G|----------------------------2------53-0|
D|----2-0--------20------53-53---3-------|
A|---3---3---03------03-----------3------|
E|1-------0------------------------------|

Chorus 1
G|-----------------------------------|
D|--2/1----53-5------2--23-----------|
A|2-----0-----------3-------3--3---3-|
E|---------------3-----------1---0---|

Chorus 2
G|----------------------2----5-3-|
D|--2/1----53------53-53--5------|
A|2-----0------------------3-----|
E|------------1/6----------------|

Order:
Groove x2
Verse x2
Chorus 1 x2
Chorus 2
Groove x2
Verse x2
Chorus 1 x2
Chorus 2
Groove
-END-

That's all! See any errors feel free to comment.



| /  slide up
| \  slide down
| h  hammer-on
| p  pull-off
| ~  vibrato
| +  harmonic
| x  Mute note
===============================================================================

            
            
Suggest correction
Creating personal tab
Creating personal tab
You can edit any tab online and save it as your Personal.

You can edit, replace or remove any tab part or add personal notes – all changes will be seen only by you.

Personal tabs can be accessed anytime from any device, even offline.
Learn more »
Give kudos to tab author, rate the tab!
1 2 3 4 5
comments
print report bad tab
2 comments total.
0 reply
marc06 10 Nov 30, 2015 06:05 PM

it's excellent! (i'm trying to figure out the chords...have you figured out them?)
well, maybe there's one little error:
instead of
Verse
G|---------------
D|----2-0--------
A|---3---3-----etc
E|1-------1-------
i think it should be
G|---------------
D|----2-0--------
A|---3---3-----etc
E|1-------0-------

guest
You may want to rate the tab now too:
select rating
Wanna post a correction for this tab? Suggest correction