Oops, an error
Loading. Please wait.

Tv Volume tab

1,084 views 60 this week
no commentswrite comment
1 2 3 4 5
x 4
add to favorites
×
Save as Personal and add changes to this tab that will be seen only by you. Learn more ›
×
You can save this tab as Personal to edit and correct it or add notes. All changes will be seen only by you. Learn more »
launch autoscroll
font size
0
reset
how to read this tab
guitar tuner
edit
Autoscroll
slow
fast
+/-
esc
set tempo
stop
About this tab version
All guitar parts, no bass. Was this info helpful? Yes No
-----------------------------------------------------------------
                     TV VOLUME - HOMESHAKE
-----------------------------------------------------------------

Tuning: Standard

Chord Progression:

    Dm7-5  DbM7  Cm7  Ab/C   Bbm7   Cm7
E|-----------------------------------------|
B|-----6-----6-----4-----1-----2-----4-----|
G|-----5-----5-----3-----1-----1-----3-----|
D|-----6-----6-----5-----1-----3-----5-----|
A|-----5-----4-----3-----3-----1-----3-----|
E|-----------------------------------------|


Wah Lead (played during verses):

E|--6h8--------------4h6--------------3h6------------------1h3--1------------------------------------------|
B|-----------------------------------------6--4--------------------4--2--------------4h6--------------6h8--|
G|-----------------------------------------------------------------------3---------------------------------|
D|---------------------------------------------------------------------------------------------------------|
A|---------------------------------------------------------------------------------------------------------|
E|---------------------------------------------------------------------------------------------------------|

 In [Verse 3] the Wah Lead mixes it up:
E|--6--8--4--6--3--4--------|
B|--------------------4--2--|
G|--------------------------|
D|--------------------------|
A|--------------------------|
E|--------------------------|

And:
E|--3h6--------|
B|-------6--4--|
G|-------------|
D|-------------|
A|-------------|
E|-------------|

Lastly:
E|--1h3--1----------|
B|----------4--2----|
G|----------------3-|
D|------------------|
A|------------------|
E|------------------|
Listen to song for timings.

[Verse 1]
Dm7-5
Eyes are closed
DbM7         Cm7
I don't know
Ab/C                       Bbm7
What her moving eyelids see
               Cm7
Deep inside so privately
(Like you do)

[Verse 2]
Dm7-5
Light is low
DbM7       Cm7
So it won't
Ab/C                    Bbm7
Pull her out from underneath
               Cm7
See me sitting patiently
(Like I do)

[Solo I]
E|-------------------------------------------------------------------------------------------------------|
B|--11/13--11-------------------------------------------------------------------9-11---------------------|
G|--------------13-12-13~-----------------8-10-10b12~----r10b12r10~---------10-------12~-----------------| x2
D|----------------------------------8--10-------------------------------11--------------------12b13r12~--|
A|-------------------------------------------------------------------------------------------------------|
E|-------------------------------------------------------------------------------------------------------|
                                                       (don't re-pick note) 
[Verse 3]
Dm7-5
Move a bit
DbM7          Cm7
Light afflicts
Ab/C                 Bbm7
Placid floating on a cloud
            Cm7
Turn the TV volume down
(Like I do)

[Verse 4]
Dm7-5
Bends her knees
DbM7          Cm7
And she speaks
(No, no, no. Your hands are too cold)
Ab/C                   Bbm7
Coming up on half past three
               Cm7
Almost see her look at me
(Like you do)

[Solo II]
as previous solo but 2nd time cut off last note without releasing bend
E|----------------------------------------------------------------------------------------------------|
B|--11/13--11-------------------------------------------------------------------9-11------------------|
G|--------------13-12-13~-----------------8-10-10b12~----r10b12r10~---------10-------12~--------------|
D|----------------------------------8--10-------------------------------11--------------------12b13---|
A|----------------------------------------------------------------------------------------------------|
E|----------------------------------------------------------------------------------------------------|
                                                       (don't re-pick note) 

************************************

| h  Hammer-on
| /  Slide up
| b  Bend
| r  Release bend
| ~  Vibrato

************************************

            
            
Suggest correction
Creating personal tab
Creating personal tab
You can edit any tab online and save it as your Personal.

You can edit, replace or remove any tab part or add personal notes – all changes will be seen only by you.

Personal tabs can be accessed anytime from any device, even offline.
Learn more »
comments
print report bad tab
guest
You may want to rate the tab now too:
select rating
Wanna post a correction for this tab? Suggest correction