Oops, an error
Loading. Please wait.

Beatdown tab

version 1
version 1

Whole song

Interactive

887 views 6 this week
no commentswrite comment
1 2 3 4 5
3 more votes to show rating
add to favorites
×
Save as Personal and add changes to this tab that will be seen only by you. Learn more ›
×
You can save this tab as Personal to edit and correct it or add notes. All changes will be seen only by you. Learn more »
launch autoscroll
font size
0
reset
how to read this tab
guitar tuner
edit
Autoscroll
slow
fast
+/-
esc
set tempo
stop
Artist: Homestuck
Song: Beatdown
Album: Homestuck Vols. 1-4
Tabbed by: gustavoaraujo999@hotmail.com

**I have tabbed the lead in 3 different places on the neck. See what one suits you best. I'm partial to 
the first one.
**Clockstopper is pretty much this but one step up. Feel free to transpose it.


e|----|
B|-11-|
G|-10-|
D|-8--|
A|-8--|
E|----|


0:07 - Bass:
G|-------------------------|---8---8---8---8----10--|
D|---8---8---8---8-----11--|--8---8---8---8---10----|
A|--8---8---8---8----11----|-6---6---6---6---8----8-|
E|-6---6---6---6----9----9-|------------------------|

G|-------------------------|---------------------------------|
D|---8---8---8---8-----11--|----10----10----10----10-----11--|
A|--8---8---8---8----11----|--10----10----10----10-----11----|
E|-6---6---6---6----9----9-|-8-----8-----8-----8------9----9-|

G|-------------------------|---8---8---8---8----10--|
D|---8---8---8---8-----11--|--8---8---8---8---10----|
A|--8---8---8---8----11----|-6---6---6---6---8----8-|
E|-6---6---6---6----9----9-|------------------------|

G|----11----11----11----11----10-|---------------------------------|
D|--11----11----11----11----10---|----10----10----10----10-----11--|
A|-9-----9-----9-----9-----8-----|--10----10----10----10-----11----|
E|-------------------------------|-8-----8-----8-----8------9----9-|



==== LEAD PLACEMNET ONE ====

0:21 - part 1
e|-----------------------------------------------|
B|---11----9---------------9---------------------|
G|------10---8---10-9-8-10---10---11-10-9-8------|
D|-8----------------------------------------11-7-|
A|-----------------------------------------------|
E|-----------------------------------------------|

e|----------------------------------------------------|
B|----------------------------9-----------------------|
G|--------8-10-8----10-9-8--------11-10-8-9-----------|
D|-8--11---------10--------10---------------11-10-8-7-|
A|----------------------------------------------------|
E|----------------------------------------------------|

e|-----------------------------------------------|
B|---11----9---------------9---------------------|
G|------10---8---10-9-8-10---10---11-10-9-8------|
D|-8----------------------------------------11-7-|
A|-----------------------------------------------|
E|-----------------------------------------------|

e|--------------------------------------------8-9---------------------|
B|-----------------------------------------10-----11-9----------------|
G|--------8-10-8----10-9-8------------8-11-------------10-8-----------|
D|-8--11---------10--------10--7-8-10-----------------------11-10-8-7-|
A|--------------------------------------------------------------------|
E|--------------------------------------------------------------------|

e|----9-------------------------------------------------------------------------------------8-|
B|-11---9-11------11-9---------9--------------------------------------------------------------|
G|-----------10--------10-8-10---8-10-6---10-9-8-----------------------------8----------------|
D|-----------------------------------------------7--8-8-8-11-8-8-8-11--10-10---10-10-10-10----|
A|--------------------------------------------------------------------------------------------|
E|--------------------------------------------------------------------------------------------|

e|-9-8----8------9-8----8-11-9-8-9------8----9----8-----------------|
B|-----11----------------------------------------------11-----10----|
G|----------10-------10------------10-------------------------------|
D|------------------------------------------------------------------|
A|------------------------------------------------------------------|
E|------------------------------------------------------------------|

0:49 - part 2
e|-----------------------------------------------|
B|---11----9---------------9---------------------|
G|------10---8---10-9-8-10---10---11-10-9-8------|
D|-8----------------------------------------11-7-|
A|-----------------------------------------------|
E|-----------------------------------------------|

e|----------------------------------------------------|
B|----------------------------9-----------------------|
G|--------8-10-8----10-9-8--------11-10-8-9-----------|
D|-8--11---------10--------10---------------11-10-8-7-|
A|----------------------------------------------------|
E|----------------------------------------------------|

e|-----------------------------------------------|
B|---11----9---------------9---------------------|
G|------10---8---10-9-8-10---10---11-10-9-8------|
D|-8----------------------------------------11-7-|
A|-----------------------------------------------|
E|-----------------------------------------------|

e|--------------------------------------------------------------------|
B|-------------------------------------------9------------------------|
G|--------8-10-8----10-9-8-------10---8------------10-----------------|
D|-8--11---------10--------10-----------------------------------------|
A|--------------------------------------------------------------------|
E|--------------------------------------------------------------------|

e|----9-------------------------------------------------------------------------------------8-|
B|-11---9-11------11-9---------9--------------------------------------------------------------|
G|-----------10--------10-8-10---8-10------10-9-8-----------------------------8---------------|
D|------------------------------------11---------7--8-8-8-11-8-8-8-11--10-10---10-10-10-10----|
A|--------------------------------------------------------------------------------------------|
E|--------------------------------------------------------------------------------------------|

e|-9-8----8------9-8----8-11-9-8-9-------9----11---13----11-----|
B|-----11----------------------------------------------------11-|
G|----------10-------10------------10------------------------10-|
D|-----------------------------------------------------------8--|
A|--------------------------------------------------------------|
E|--------------------------------------------------------------|


==== LEAD PLACEMNET TWO ====

0:21 - part 1
e|--------------------------------------------------------------------------------------|
B|--------------------------------------------------------------------------------------|
G|--------------------------------------------------------------------------------------|
D|----8---6------------6----------------------------------------6-----------------------|
A|------8---6--8-7-6-8---8---9-8-7-6------------6-8-6---8-7-6-------9-8-7-6-------------|
E|-6---------------------------------9-5--6--9--------8-------8-------------9-8-6-5-(6)-|

e|----------------------------------------------------------------------------------------------|
B|----------------------------------------------------------------------------------------------|
G|---------------------------------------------------------------------------5-6----------------|
D|----8---6------------6---------------------------------------------------7-----8-6------------|
A|------8---6--8-7-6-8---8---9-8-7-6------------6-8-6---8-7-6----------6-9-----------8-6--------|
E|-6---------------------------------9-5--6--9--------8-------8--5-6-8-------------------9-8-6-5|

e|------------------------------------------------------------------------------|
B|------------------------------------------------------------------------------|
G|---6--------------------------------------------------------------------------|
D|-8---6-8-----8-6-------6---------------------------------------------------10-|
A|---------8-------8-6-8---6-8----8-7-6-0---------------------------------------|
E|-----------------------------9-----------6-6-6-9-6-6-6-6-9--8-8-11-8-8-8-8----|

e|----------------------------------------------------------------------|
B|----------------------------------------------------------------------|
G|-----------------------------8----------------------------------------|
D|-11-10-8--10-----11-10---10------11-10-11-----11----10-----8-----7----|
A|-------------8---------8-----------------8----------------------------|
E|----------------------------------------------------------------------|

0:49 - part 2
e|--------------------------------------------------------------------------------------|
B|--------------------------------------------------------------------------------------|
G|--------------------------------------------------------------------------------------|
D|----8---6------------6----------------------------------------6-----------------------|
A|------8---6--8-7-6-8---8---9-8-7-6------------6-8-6---8-7-6-------9-8-7-6-------------|
E|-6---------------------------------9-5--6--9--------8-------8-------------9-8-6-5-(6)-|

e|----------------------------------------------------------------------------------------------|
B|----------------------------------------------------------------------------------------------|
G|----------------------------------------------------------------------------------------------|
D|----8---6------------6---------------------------------------------------6--------------------|
A|------8---6--8-7-6-8---8---9-8-7-6------------6-8-6---8-7-6----8----6----------8--------------|
E|-6---------------------------------9-5--6--9--------8-------8---------------------------------|

e|------------------------------------------------------------------------------|
B|------------------------------------------------------------------------------|
G|---6--------------------------------------------------------------------------|
D|-8---6-8-----8-6-------6---------------------------------------------------10-|
A|---------8-------8-6-8---6-8----8-7-6-0---------------------------------------|
E|-----------------------------9-----------6-6-6-9-6-6-6-6-9--8-8-11-8-8-8-8----|


e|----------------------------------------------------------------------|
B|----------------------------------------------------------------------|
G|-----------------------------8----------------------8----10----8------|
D|-11-10-8--10-----11-10---10------11-10-11-----11-------------------8--|
A|-------------8---------8-----------------8-------------------------8--|
E|-------------------------------------------------------------------6--|


==== LEAD PLACEMENT THREE ====

0:21 - part 1
e|---------------------------------------------------------------|
B|---------------------------------------------------------------|
G|-----15----13------------------13------------------------------|
D|--------15----13---15-14-13-15----15---16-15-14-13-------------|
A|-13------------------------------------------------16-13-12----|
E|---------------------------------------------------------------|

e|---------------------------------------------------------------|
B|---------------------------------------------------------------|
G|-----------------------------------13--------------------------|
D|-----------13-15-13----15-14-13--------16-15-14-13-------------|
A|-13---16------------15----------15-----------------16-15-13-12-|
E|---------------------------------------------------------------|

e|---------------------------------------------------------------|
B|---------------------------------------------------------------|
G|-----15----13------------------13------------------------------|
D|--------15----13---15-14-13-15----15---16-15-14-13-------------|
A|-13------------------------------------------------16-13-12----|
E|---------------------------------------------------------------|

e|----------------------------------------------------------------------------------|
B|-----------------------------------------------------13-14------------------------|
G|--------------------------------------------------14-------15-13------------------|
D|----------13-15-13----15-14-13--------------13-16----------------15-13------------|
A|-13---16-----------15----------15--12-13-15----------------------------16-15-13-12|
E|----------------------------------------------------------------------------------|

e|---------------------------------------------------------------|
B|----14---------------------------------------------------------|
G|-15----13-15-----15-13-----------13----------------------------|
D|-------------15--------15-13--15----13-15-----15-14-13---------|
A|------------------------------------------16-----------12------|
E|---------------------------------------------------------------|

e|---------------------------------------------------------------|
B|-----------------------------------------------------13--------|
G|---------------------------------------------------------------|
D|--------------------------------------13-----------------------|
A|-13-13-13-16-13-13-13-13-16--15-15-15----15-15-15-15-----------|
E|---------------------------------------------------------------|

e|---------------------------------------------------------------|
B|-14-13----13------14-13----13-16-14-13-14-----14---13----------|
G|-------15-----------------------------------------------15--14-|
D|-------------15---------15----------------15-------------------|
A|---------------------------------------------------------------|
E|---------------------------------------------------------------|

0:47 - part 2
e|---------------------------------------------------------------|
B|---------------------------------------------------------------|
G|-----15----13------------------13------------------------------|
D|--------15----13---15-14-13-15----15---16-15-14-13-------------|
A|-13------------------------------------------------16-13-12----|
E|---------------------------------------------------------------|

e|---------------------------------------------------------------|
B|---------------------------------------------------------------|
G|-----------------------------------13--------------------------|
D|-----------13-15-13----15-14-13--------16-15-14-13-------------|
A|-13---16------------15----------15-----------------16-15-13-12-|
E|---------------------------------------------------------------|

e|---------------------------------------------------------------|
B|---------------------------------------------------------------|
G|-----15----13------------------13------------------------------|
D|--------15----13---15-14-13-15----15---16-15-14-13-------------|
A|-13------------------------------------------------16-13-12----|
E|---------------------------------------------------------------|

e|----------------------------------------------------------------------------------|
B|----------------------------------------------------------------------------------|
G|-----------------------------------------------13---------------------------------|
D|----------13-15-13----15-14-13-----15----13-----------15--------------------------|
A|-13---16-----------15----------15-------------------------------------------------|
E|----------------------------------------------------------------------------------|

e|---------------------------------------------------------------|
B|----14---------------------------------------------------------|
G|-15----13-15-----15-13-----------13----------------------------|
D|-------------15--------15-13--15----13-15-----15-14-13---------|
A|------------------------------------------16-----------12------|
E|---------------------------------------------------------------|

e|---------------------------------------------------------------|
B|-----------------------------------------------------13--------|
G|---------------------------------------------------------------|
D|--------------------------------------13-----------------------|
A|-13-13-13-16-13-13-13-13-16--15-15-15----15-15-15-15-----------|
E|---------------------------------------------------------------|

e|--------------------------------------------------------13-----|
B|-14-13----13------14-13----13-16-14-13-14-----14---16-------16-|
G|-------15------------------------------------------------------|
D|-------------15---------15----------------15-------------------|
A|---------------------------------------------------------------|
E|---------------------------------------------------------------|
 


            
            
Suggest correction
Creating personal tab
Creating personal tab
You can edit any tab online and save it as your Personal.

You can edit, replace or remove any tab part or add personal notes – all changes will be seen only by you.

Personal tabs can be accessed anytime from any device, even offline.
Learn more »
Give kudos to tab author, rate the tab!
1 2 3 4 5
comments
print report bad tab
guest
You may want to rate the tab now too:
select rating
Wanna post a correction for this tab? Suggest correction