Oops, an error
Loading. Please wait.

Blind Justice Investigation Bass

160 views 1 this week
no commentswrite comment
1 2 3 4 5
3 more votes to show rating
add to favorites
launch autoscroll
font size
0
reset
guitar tuner
×
Best way to learn
"Blind Justice Investigation"
Autoscroll
slow
fast
+/-
esc
set tempo
stop
Author
Difficulty
  follow
intermediate
About this tab version
The only thing different between this and the original is that the last four bars are one octave lower than they should be because they wouldn't fit otherwise. Was this info helpful? Yes No
Part I
G|-2-----------------------|-2-----------------------|
D|-0-----------------------|-0-----------------------|
A|-------------------------|-------------------------|
E|-------------------------|-------------------------|

G|-------7--------7--------|-------7--------7-----9--|
D|-0--7-----0--7-----0--8--|-0--7-----0--7-----0-----|
A|-------------------------|-------------------------| x6
E|-------------------------|-------------------------|

Wait x2

Part II
G|-------------------------|-------------------------|-------------------------|-------------------------|
D|-0---0---0---0-0--0--0---|-------------------------|-3---3---3---3-3--3--2---|-------------------------|
A|-------------------------|-0---0---0---0-0--0--3---|-------------------------|-0---0---0---0-0--0--0---| x3
E|-------------------------|-------------------------|-------------------------|-------------------------|

Part III
G|-7--------7--------7-----|-9--------9--------9-----|-10-------10-------10----|-9--------9--------9-----|
D|----7--------7--------7--|----10-------10-------10-|----12-------12-------12-|----10-------10-------10-|
A|-------8--------8--------|-------10-------10-------|-------12-------12-------|-------10-------10-------|
E|-------------------------|-------------------------|-------------------------|-------------------------|

G|-7--------7--------7-----|-9--------9--------9-----|-------------------------|-9--------14-------18-14-|
D|----7--------7--------7--|----10-------10-------10-|-11-------11-------11----|----11-------14----------|
A|-------8--------8--------|-------10-------10-------|----12-------12-------12-|-------12-------16-------|
E|-------------------------|-------------------------|-------12-------12-------|-------------------------|

Part IV
G|-------7--------7--------|
D|-0--7-----0--7-----0--7--|
A|-------------------------|  x3
E|-------------------------|
                                    ------+
G|-------5-------5---------|              |
D|-0--7-----0--7-----0--7--|              |
A|-------------------------|              |
E|-------------------------|              |
                                          +--- These are the SAME
G|-------7--------7--------|              |
D|-0--7-----0--7-----0--7--|              |
A|-------------------------|  x3          |
E|-------------------------|              |
                                    ------+
G|-------5--------5--------|
D|-0--7-----0--7-----0--7--|
A|-------------------------|
E|-------------------------|

Part V
G|-------------------------|
D|-0--7--5--7-----7-----7--|
A|-------------8-----7-----|  x7
E|-------------------------|
                                    ------+
G|-------------------------|              |
D|----7--5--7--7-8-7-6-7---|              |
A|-4-----------------------|              |
E|-------------------------|              |
                                          +--- These are DIFFERENT
G|-------------------------|              |
D|-0--7--5--7-----7-----7--|              |
A|-------------8-----7-----|  x7          |
E|-------------------------|              |
                                    ------+
G|-------------------------|
D|----7--0--7--7-8-7-6-7---|
A|-4-----------------------|
E|-------------------------|

Part VI
G|-------------------------|-------------------------|------------------------|-------------------------|
D|-0--7--5--7-----7-----7--|----7--5--7--7-8-7-6-7---|-7-----10----7--5--3--5-|-------7-----7-8-7-6-7---|
A|-------------8-----7-----|-4-----------------------|----8-----8-------------|-7--4-----4--------------|  x2
E|-------------------------|-------------------------|------------------------|-------------------------|

G|-------------------------|-------------------------|------------------------|-------------------------|
D|----8--6--8-----8-----7--|----8--6--8--8-9-8-7-8---|-8-----11----8--6--4--6-|----0--8--0--8-9-8-7-8---|
A|-6-----------9-----8-----|-5-----------------------|----9-----9-------------|-8-----------------------|  x2
E|-------------------------|-------------------------|------------------------|-------------------------|

Part VII
G|-8-----------------8--10-|-------------------10----|-11-8--13-10-15----13---|-16----11----------16----|
D|-9-----------------9--11-|-------------------11----|-9-----11----13---------|-13-------13-------------|
A|-------9--------9--------|-------11-------11-------|------------------------|-------------------------|
E|----------11-------------|----------13-------------|------------------------|-------------------------|

G|-18----13----------18----|-------------------------|------------------------|-20----------------------|
D|-15-------15-------------|-13----------15----------|-16----------20---------|-------------------------|
A|-------------------------|----13-------16----------|-18----------18---------|-18----------------------|
E|-------------------------|-------------------------|------------------------|-------------------------|
Suggest correction
Give kudos to tab author, rate the tab!
1 2 3 4 5
comments
print report bad tab
guest
You may want to rate the tab now too:
select rating
Wanna post a correction for this tab? Suggest correction