Oops, an error
Loading. Please wait.

Showtime tab

version 2
version 2

Whole song

  • A fingerstyle arrangement of the song Showtime from Homestuck.

Interactive

675 views 1 this week
no commentswrite comment
1 2 3 4 5
3 more votes to show rating
add to favorites
×
Save as Personal and add changes to this tab that will be seen only by you. Learn more ›
×
You can save this tab as Personal to edit and correct it or add notes. All changes will be seen only by you. Learn more »
launch autoscroll
font size
0
reset
how to read this tab
guitar tuner
edit
Autoscroll
slow
fast
+/-
esc
set tempo
stop
Artist: Homestuck
Song: Showtime
Album: Homestuck Vol. 1-4
Tabbed by: gustavoaraujo999@hotmail.com


0:05
e|----|---|---|---|----|---|---|-8-|
B|----|-8-|-9-|-8-|----|-8-|-9-|---|
G|----|---|---|---|----|---|---|---|
D|-10-|---|---|---|-10-|---|---|---|
A|----|---|---|---|----|---|---|---|
E|----|---|---|---|----|---|---|---|


0:10
e|-------------------------|-----------------------|-----------------------|
B|-------------------------|-8-------8-------8-----|-8-------8-------8-----|
G|-8---------8--------8----|-------8-------8-------|-------8-------8-------|
D|--------10-------10------|----10------10------10-|----10------10------10-|
A|-----10-------10------10-|-----------------------|-----------------------|
E|-------------------------|-----------------------|-----------------------|

e|----------------------------|---------------------------|
B|----------------------------|-13--------13--------13-13-|
G|-13-----12-13-----12-13-----|--------12--------12-------|
D|-----10--------10--------10-|-----10--------10----------|
A|----------------------------|---------------------------|
E|----------------------------|---------------------------|


0:17
e|---------------------------------------------------------------------------|
B|-4------4-6------6-8------8------8---9--------9-8------8-6------6-8------8-|
G|------5--------7--------8------8---8-------10--------8--------7--------7---|
D|----5--------8--------8------8----------10---------8--------8--------9-----|
A|---------------------------------------------------------------------------|
E|---------------------------------------------------------------------------|

e|------------------------------------------------------------------------------|
B|-4------4-6------6-8------8-11------8-9--------9-8------8---------------------|
G|------5--------7--------8---------8---------10--------7-----------------------|
D|----5--------8--------8---------8--------10---------9-----10-------10------10-|
A|----------------------------------------------------------------10------10----|
E|--------------------------------------------------------------8-------8-------|


0:27
e|-----------------------------------------------------------|
B|-----------------------------------------------------------|
G|---------------12-------12-13---15-13-12----------12h13p12-|
D|-----12-13--15-------13------------------15-13-15----------|
A|-15--------------------------------------------------------|
E|-----------------------------------------------------------|

E|---------------------------------------------|
B|-----------------------13--------------------|
G|--------12--13-15----------15p13p12----------|
D|-13--15-----------------------------12-------|
A|---------------------------------------14-15-|
E|---------------------------------------------|

e|-----------------------------------------------------------|
B|-----------------------------------------------------------|
G|---------------12-------12-13---15-13-12----------12h13p12-|
D|-----12-13--15-------13------------------15-13-15----------|
A|-15--------------------------------------------------------|
E|-----------------------------------------------------------|

E|---------------------------------------------|
B|-----------------------13--------------------|
G|--------12--13-15----------15p13p12----------|
D|-13--15-----------------------------12-------|
A|---------------------------------------14-15-|
E|---------------------------------------------|


0:48
e|-----------------------------------|----------------------------------------------------|
B|-6-------6-------6--------8--------|-10----------10----------10----------10----------10-|
G|---7---7---7---7---7---7----9----9-|----10----10----10----10----10----10----10----10----|
D|-----7-------7-------7--------10---|-------10----------10----------10----------10-------|
A|-----------------------------------|----------------------------------------------------|
E|-----------------------------------|----------------------------------------------------|

e|---------------------------------------------|--------------------------------------------------|
B|-11----------11----------10--------10--------|--------------------------------------------------|
G|----12----12----12----12----9----9----9----9-|-10----------10-----------------------------------|
D|-------12----------12---------11--------11---|----12----12----12----12-12----------12--------12-|
A|---------------------------------------------|-------12----------12-------12----12----12---12---|
E|---------------------------------------------|-------------------------------13----------13-----|


1:00
e|-----------------------------------------------------------|
B|-----------------------------------------------------------|
G|---------------14-------14-15---17-15-14----------14h15p14-|
D|-----14-15--17-------15------------------17-15-17----------|
A|-17--------------------------------------------------------|
E|-----------------------------------------------------------|

e|----------------------------------------------|
B|-----------------------15---------------------|
G|--------14--15-17----------17p15p14-----------|
D|-15--17-----------------------------14--------|
A|---------------------------------------16-17--|
E|----------------------------------------------|


1:10
e|---------------------------------|---------------------------------|
B|---------------------------------|---------------------------------|
G|---------------------------------|---------------------------------|
D|-----------------1-1-1-1-1-1-1-1-|-3-3-3-3-1-1-1-1---------5-5-5-5-|
A|-3-3-3-3-1-1-1-1-----------------|-----------------1-1-1-1---------|
E|---------------------------------|---------------------------------|

e|---------------------------------|---------------------------------|
B|---------------------------------|---------------------------------|
G|---------------------------------|---------------------------------|
D|-----------------1-1-1-1-1-1-1-1-|-3-3-3-3-5-5-5-5-----------------|
A|-3-3-3-3-1-1-1-1-----------------|-----------------3-3-3-3-3-3-3-3-|
E|---------------------------------|---------------------------------|

e|---------------------------------|---------------------------------|
B|---------------------------------|---------------------------------|
G|---------------------------------|---------------------------------|
D|-----------------1-1-1-1-1-1-1-1-|-3-3-3-3-1-1-1-1---------5-5-5-5-|
A|-3-3-3-3-1-1-1-1-----------------|-----------------1-1-1-1---------|
E|---------------------------------|---------------------------------|

e|---------------------------------|---------------------------------|
B|---------------------------------|---------------------------------|
G|---------------------------------|---------------------------------|
D|-----------------1-1-1-1-1-1-1-1-|-3-3-3-3-5-5-5-5-----------------|
A|-3-3-3-3-1-1-1-1-----------------|-----------------3-3-3-3-3-3-3-3-|
E|---------------------------------|---------------------------------|


1:31
e|---------------------------------|---------------------------------|
B|---------------------------------|---------------------------------|
G|---------------------------------|---------------------------------|
D|-----------------3-3-3-3-3-3-3-3-|-5-5-5-5-3-3-3-3---------7-7-7-7-|
A|-5-5-5-5-3-3-3-3-----------------|-----------------3-3-3-3---------|
E|---------------------------------|---------------------------------|

e|---------------------------------|---------------------------------|
B|---------------------------------|---------------------------------|
G|---------------------------------|---------------------------------|
D|-----------------3-3-3-3-3-3-3-3-|-5-5-5-5-7-7-7-7-----------------|
A|-5-5-5-5-3-3-3-3-----------------|-----------------5-5-5-5-5-5-5-5-|
E|---------------------------------|---------------------------------|


1:43
e|-----------------------------------------------------------|
B|-----------------------------------------------------------|
G|---------------14-------14-15---17-15-14----------14h15p14-|
D|-----14-15--17-------15------------------17-15-17----------|
A|-17--------------------------------------------------------|
E|-----------------------------------------------------------|

e|----------------------------------------------|----|
B|-----------------------15---------------------|----|
G|--------14--15-17----------17p15p14-----------|----|
D|-15--17-----------------------------14--------|----|
A|---------------------------------------16-17--|-14-|
E|----------------------------------------------|----|


1:52
e|-------------------------|-------------------------|
B|-------------------------|-------------------------|
G|----------14----14-------|-------14-17----15-14----|
D|----14-15----------17-14-|-15-17-------15-------15-|
A|-17----------17----------|-------------------------|
E|-------------------------|-------------------------|

e|------------------------------------------------|
B|-------15---------------------------------------|
G|-15----------17----14----------15----14---------|
D|-------------------------17---------------15-14-|
A|------------------------------------------------|
E|------------------------------------------------|


1:58
e|----------10----------10----------12----------12----------13----------13-17--|
B|-------10----------10----------13----------13----------13----------13--------|
G|----10----------10----------12----------12----------14----------14-----------|
D|-12----------12----------14----------14----------15----------15--------------|
A|-----------------------------------------------------------------------------|
E|-----------------------------------------------------------------------------|

e|-------18-15-------------------17-----------------|
B|-18----------15-------------------17-14-----------|
G|----17----------16-------15-------------14--------|
D|-------------------17-------17-------------14-----|
A|----------------------17----------------------16--|
E|--------------------------------------------------|

e|--------------------------------------------------|
B|--------------------------------------------------|
G|--------------------------------------------------|
D|----------------12-14-12----0----12-14-15-14----0-|
A|-12----12----12----------12---12-------------12---|
E|----12----13--------------------------------------|
Suggest correction
Creating personal tab
Creating personal tab
You can edit any tab online and save it as your Personal.

You can edit, replace or remove any tab part or add personal notes – all changes will be seen only by you.

Personal tabs can be accessed anytime from any device, even offline.
Learn more »
Give kudos to tab author, rate the tab!
1 2 3 4 5
comments
print report bad tab
guest
You may want to rate the tab now too:
select rating
Wanna post a correction for this tab? Suggest correction