Oops, an error
Loading. Please wait.

Sunslammer tab

version 2
version 2

Whole song

1,558 views 6 this week
no commentswrite comment
1 2 3 4 5
1 last vote to show rating
add to favorites
×
Save as Personal and add changes to this tab that will be seen only by you. Learn more ›
×
You can save this tab as Personal to edit and correct it or add notes. All changes will be seen only by you. Learn more »
launch autoscroll
font size
0
reset
how to read this tab
guitar tuner
edit
Autoscroll
slow
fast
+/-
esc
set tempo
stop
Author
Difficulty
intermediate
-------------------------------------------------------------------------------
                             Sunslammer - Homestuck
-------------------------------------------------------------------------------
Tabbed by: Evvy (Michael Wicke & Tim DeLand)
Email:drew.9310@hotmail.com

Tuning: Standard

e|----------3------1---------------------3------1----------------------------|
B|--1--1------4------4---------------------4------4--------------------------|
G|---------------------------------2--2--------------------------------------|
D|---------------------------------------------------------------------------|
A|---------------------------------------------------------------------------|
E|---------------------------------------------------------------------------|

e|----------3------1--6------6--4--3--1--1-----------------------------------|
B|--------------4----------------------------------4--3----------------------|
G|--1--1--------------------------------------------------3------------------|
D|---------------------------------------------------------------------------|
A|---------------------------------------------------------------------------|
E|---------------------------------------------------------------------------|

e|----------3------1----------------------3------1---------------------------|
B|--1--1------4------4----------------------4------4-------------------------|
G|---------------------------2--2--------------------------------------------|
D|---------------------------------------------------------------------------|
A|---------------------------------------------------------------------------|
E|---------------------------------------------------------------------------|

e|----------3------1--6--------6--4--3--1--1--3--4---------------------------|
B|--------------4------------------------------------------------------------|
G|--1--1---------------------------------------------------------------------|
D|---------------------------------------------------------------------------|
A|---------------------------------------------------------------------------|
E|---------------------------------------------------------------------------|

e|--6----6--8--6-----6--8--6-----------------1-1--3--3--4--4-----------------|
B|-------------------------------------4--4----------------------------------|
G|---------------------------------------------------------------------------|
D|---------------------------------------------------------------------------|
A|---------------------------------------------------------------------------|
E|---------------------------------------------------------------------------|

e|--6-----6--8--6------11--10--11-------6--4--3-----8------------------------|
B|---------------------------------------------------------------------------|
G|---------------------------------------------------------------------------|
D|---------------------------------------------------------------------------|
A|---------------------------------------------------------------------------|
E|---------------------------------------------------------------------------|

e|--6-----6--8--6-----6--8--6-----------------------------------1------------|
B|--------------------------------------4----3--4-----1--3--4----------------|
G|---------------------------------------------------------------------------|
D|---------------------------------------------------------------------------|
A|---------------------------------------------------------------------------|
E|---------------------------------------------------------------------------|

e|--3----------------------1-------------------------3------1----------------|
B|----------1--4--3--4-----------4-------1--1------4------4------------------|
G|------3--------------------------------------------------------------------|
D|---------------------------------------------------------------------------|
A|---------------------------------------------------------------------------|
E|---------------------------------------------------------------------------|


e|----------3------1-----------------3------1---6----6-----------------------|
B|--------------4------4-----------------4-----------------------------------|
G|--2--2---------------------1--1--------------------------------------------|
D|---------------------------------------------------------------------------|
A|---------------------------------------------------------------------------|
E|---------------------------------------------------------------------------|

e|--4--3--1--1----------------------------3------1---------------------------|
B|------------------4--3------------1--1------4------4------------------------|
G|--------------------------3------------------------------------------------|
D|---------------------------------------------------------------------------|
A|---------------------------------------------------------------------------|
E|---------------------------------------------------------------------------|

e|----------3------1---------------------3------1----6----6------------------|
B|--------------4------4---------------------4-------------------------------|
G|--2--2-------------------------1--1----------------------------------------|
D|---------------------------------------------------------------------------|
A|---------------------------------------------------------------------------|
E|---------------------------------------------------------------------------|

e|--4---3---1---1---3---4--------6------6--8--6----6--8--6-------------------|
B|---------------------------------------------------------------------------|
G|---------------------------------------------------------------------------|
D|---------------------------------------------------------------------------|
A|---------------------------------------------------------------------------|
E|---------------------------------------------------------------------------|

e|----------1--1--3--3--4--4-----6---6--8--6----11--10--11-------------------|
B|--4--4---------------------------------------------------------------------|
G|---------------------------------------------------------------------------|
D|---------------------------------------------------------------------------|
A|---------------------------------------------------------------------------|
E|---------------------------------------------------------------------------|

e|--6------4--3--8-----6-------6--8--6-------6--8--6-------------------------|
B|---------------------------------------------------------------4-----------|
G|---------------------------------------------------------------------------|
D|---------------------------------------------------------------------------|
A|---------------------------------------------------------------------------|
E|---------------------------------------------------------------------------|

e|--11--11--11----------------1--3---------------------------1---------------|
B|--------------------1--3--4----------------1-----4--3--4-------------------|
G|----------------------------------------3----------------------------------|
D|---------------------------------------------------------------------------|
A|---------------------------------------------------------------------------|
E|---------------------------------------------------------------------------|

e|---------------------------------------------------------------------------|
B|-----------------4--4--4--4--4--4--4---------------------------------------|
G|---------------------------------------------------------------------------|
D|---------------------------------------------------------------------------|
A|---------------------------------------------------------------------------|
E|---------------------------------------------------------------------------|

e|---------------------------------------------------------------------------| x6
B|------1-------2-1---------------1------2-1---------------------------------| x6
G|---------------------------------------------------------------------------| x6
D|----------------------------------------------0----1-----------------------| x6
A|--3-3----3-3-------3-3-3---3-3----3-3------3----3----3-3-3-----------------| x6
E|---------------------------------------------------------------------------| x6

e|----------3------1---------------------3------1----------------------------|
B|--1--1------4------4---------------------4------4--------------------------|
G|---------------------------------2--2--------------------------------------|
D|---------------------------------------------------------------------------|
A|---------------------------------------------------------------------------|
E|---------------------------------------------------------------------------|

e|----------3------1--6--6-------1--3--6--6--6--4--3--3----------------------|
B|--------------4------------------------------------------------------------|
G|--1--1---------------------------------------------------------------------|
D|---------------------------------------------------------------------------|
A|---------------------------------------------------------------------------|
E|---------------------------------------------------------------------------|

e|--1--3--4--------3--1------1-----------------------------------------------|
B|-----------------------4------4--3--4--3----------------------1------------|
G|----------------------------------------------------3--0--3----------------|
D|---------------------------------------------------------------------------|
A|---------------------------------------------------------------------------|
E|---------------------------------------------------------------------------|

e|----------------------1--3--3--4--3--6--------------3--4--3----------------|
B|--------4--3--------------------------------4--3--4------------------------|
G|--0------------3-----------------------------------------------------------|
D|---------------------------------------------------------------------------|
A|---------------------------------------------------------------------------|
E|---------------------------------------------------------------------------|

e|--6--------------1---------------------------------------------------------|
B|------4--3--4------3--1--------------------4--2----------------------------|
G|------------------------------3--3--0--3-----------1----------1------------|
D|------------------------------------------------------3--------------------|
A|---------------------------------------------------------4-----------------|
E|---------------------------------------------------------------------------|

e|----------------4-------6--4--------------1g3--1---------------------------|
B|--1--2--1----1------1-----------1--3--4-------------3--1-------------------|
G|----------------------------------------------------------------------3--0-|
D|---------------------------------------------------------------------------|
A|---------------------------------------------------------------------------|
E|---------------------------------------------------------------------------|

e|----------3--6--11--10--6-----------3--1----------0--1--2------------------|
B|--1---------------------------------------4-3-4----------------------------|
G|------3--------------------------------------------------------------------|
D|---------------------------------------------------------------------------|
A|---------------------------------------------------------------------------|
E|---------------------------------------------------------------------------|

e|--3--6--8--3--1-------------1--------------------------6----------1--------|
B|----------------------4--1------1--3--------------4-------4--4-------------|
G|---------------------------------------------------------------------------|
D|---------------------------------------------------------------------------|
A|---------------------------------------------------------------------------|
E|---------------------------------------------------------------------------|

e|--3-----3--1-------------------3--4--6----------4--6--8--------------------|
B|-----------------4--3-------4----------------4-----------------------------|
G|---------------------------------------------------------------------------|
D|---------------------------------------------------------------------------|
A|---------------------------------------------------------------------------|
E|---------------------------------------------------------------------------|

e|--6------3--6-----11-10-11-13--11-------------------------------11---------|
B|------4--------------------------------------------------------------------|
G|---------------------------------------------------------------------------|
D|-----------------------------------------------1-1-1-1-1-1-1-1-------------|
A|---------------------------------------------------------------------------|
E|---------------------------------------------------------------------------|



************************************

| /   slide up
| \   slide down
| h   hammer-on
| p   pull-off
| ~   vibrato
| +   harmonic
| x   Mute note
| b   Bend
| pb  Pre-bend
| br  Bend release
| pbr Pre-bend release
| brb Bend release bend
| g Grace note

************************************

            
            
Suggest correction
Creating personal tab
Creating personal tab
You can edit any tab online and save it as your Personal.

You can edit, replace or remove any tab part or add personal notes – all changes will be seen only by you.

Personal tabs can be accessed anytime from any device, even offline.
Learn more »
Give kudos to tab author, rate the tab!
1 2 3 4 5
comments
print report bad tab
guest
You may want to rate the tab now too:
select rating
Wanna post a correction for this tab? Suggest correction