Oops, an error
Loading. Please wait.

No Soy Yo tab

8 views 1 this week
no commentswrite comment
1 2 3 4 5
3 more votes to show rating
add to favorites
×
Save as Personal and add changes to this tab that will be seen only by you. Learn more ›
×
You can save this tab as Personal to edit and correct it or add notes. All changes will be seen only by you. Learn more »
launch autoscroll
font size
0
reset
how to read this tab
guitar tuner
edit
Autoscroll
slow
fast
+/-
esc
set tempo
stop
(Intro wah-wah)
|----7-7---7-7---7-7---7-7--7-7--7-7--7-7--7-7-
|-10b---10b---10b---10b------------------------
|-------------------------9b---9b---9b---9b----
|----------------------------------------------
|----------------------------------------------
|----------------------------------------------


-10b-7-7--10b-7-7--10b-7-7-10b-7-7--|
------------------------------------|
------------------------------------|
------------------------------------|
------------------------------------|
------------------------------------|

  SI           RE
COMO UN ANIMAL HERIDO
  SI            RE
QUE HA PERDIDO EL CONTROL
  SI         RE
SALES AL ASFALTO
  SI         RE
BUSCANDO TENSION
  SI         RE
LA VIDA TE HA MARCADO
  SI         RE
COMO UN TIPO FATAL
  SI         RE
DEJASTE DE TENER 
  SI         RE
ALGO EN QUE LUCHAR


 MI         RE    LA-SOL    SI-RE  SI-RE
YO SE QUE LO TIENES CLARO
MI          RE    LA-SOL    SI-RE  SI-RE
ADIOS FUTURO, NO HAY PASADO
  
RE            SOL-MI
Y CUANDO ME DESPIERTAN 
DO         LA
EL LATIDO DEL RELOG
RE            SOL-MI
VEO MI ALMA EN EL ESPEJO 
DO           LA
Y SIENTO QUE NO SOY YO
RE             SOL-MI
LAS HORAS ME ABSORVEN 
DO               LA
HACIA UN VACIO INTERIOR
RE             SOL-MI
DONDE TODO GIRA Y GIRA
  DO              LA
Y SIENTO QUE NO SOY YO, 
  LA
QUE NO SOY YO.

SI-RE      SI-RE      SI-RE      SI-RE


  SI              RE
SABES QUE TODO LO QUE EMPIEZA
  SI         RE
TIENE QUE ACABAR
  SI         RE
EL SUDOR FRIO
  SI         RE
VUELVE A LLEGAR

  SI         RE
LA NOCHE ESTA LLENA 
  SI         RE
DE ALMAS EN PENA
  SI         RE
QUE VAGAN BUSCANDO 
  SI         RE
ALGO EN QUE GALOPAR 
MI         RE      LA-SOL    SI-RE  SI-RE
YO SE QUE LO TIENES CLARO,
MI         RE      LA-SOL    SI-RE  SI-RE  
ADIOS FUTURO, NO HAY PASADO

RE           SOL-MI
Y CUANDO ME DESPIERTO 
    DO        LA
EMPAPADO EN SUDOR 
RE              SOL-MI
VEO MI ALMA EN EL ESPEJO
    DO           LA 
Y SIENTO QUE NO SOY YO

RE              SOL-MI
MIS REFLEJOS SE QUIEBRAN
    DO         LA
EN TROZOS DE ILUSION
RE             SOL-MI
GIRAN Y DESAPARECEN
    DO         LA
Y SIENTO QUE NO SOY YO,
    LA
QUE NO SOY YO YO 


|----------------------------------------------------------|
|------------------------------------------------------7---|
|-9--7-9--7--6--7--6-6---7--7-7-7-0--0-----------------6---|
|-9--7-9--7--7--7--7-7---9--9-8-8-7--7--7--7-9---9-----7---|
|---------------------------------------9--9-11--11--------|
|----------------------------------------------------------|


Solo (wah-wah)
                   Play x 2      
|-----------------7-7----7-7---7-7---7-7-------
|--------------10b---10b----10b---10b----10b---
|----------------------------------------------
|-7-9b-7-9b-7-9--------------------------------
|----------------------------------------------
|----------------------------------------------

      Play x 2                        Play x 2
-7---------------------/-----------------------------------|
--10b-10-7-------------/-----------------------------------|
----------10-7--7--10b-/--7-------------------------7-7-9-7|
--------------10-------/--------5---5-7---5--7-9-7-9-9-----|
-----------------------/---7-5-7--7------------------------|
-----------------------/-----------------------------------|

RE            SOL-MI
Y CUANDO ME DESPIERTO 
    DO        LA
EMPAPADO EN SUDOR 
RE              SOL-MI
VEO MI ALMA EN EL ESPEJO
    DO           LA 
Y SIENTO QUE NO SOY YO

RE              SOL-MI
MIS REFLEJOS SE QUIEBRAN
    DO         LA
EN TROZOS DE ILUSION
RE             SOL-MI
GIRAN Y DESAPARECEN
    DO         LA
Y SIENTO QUE NO SOY YO,
    LA
QUE NO SOY YO YO 


|-------------------------------------------------
|-------------------------------------------------
|-9--7-9--7--6--7--6-6---9--7-9--7--6--7--6--6----
|-9--7-9--7--7--7--7-7---9--7-9--7--7--7--7--7----
|-------------------------------------------------
|-------------------------------------------------

--------------------------------------------------
--------------------------------------------------
-7--5-7--5-4--5--4-4----7--5-7--5-4--5--4-4-------
-7--5-7--5-5--5--5-5----7--5-7--5-5--5--5-5-------
--------------------------------------------------
--------------------------------------------------

----------------------------------------------------------|
------------------------------------------------------7---|
-9--7-9--7--6--7--6-6---7--7-7-7-0--0-----------------6---|
-9--7-9--7--7--7--7-7---9--9-8-8-7--7--7--7-9---9-----7---|
---------------------------------------9--9-11--11--------|
----------------------------------------------------------|

FIN 
MI............SI

            
            
Suggest correction
Creating personal tab
Creating personal tab
You can edit any tab online and save it as your Personal.

You can edit, replace or remove any tab part or add personal notes – all changes will be seen only by you.

Personal tabs can be accessed anytime from any device, even offline.
Learn more »
Give kudos to tab author, rate the tab!
1 2 3 4 5
comments
print report bad tab
guest
Wanna post a correction for this tab? Suggest correction