Oops, an error
Loading. Please wait.

Pierdo El Juicio chords

4 views 1 this week
no commentswrite comment
1 2 3 4 5
3 more votes to show rating
add to favorites
×
Save as Personal and add changes to this tab that will be seen only by you. Learn more ›
×
You can save this tab as Personal to edit and correct it or add notes. All changes will be seen only by you. Learn more »
launch autoscroll
font size
0
reset
transpose
0
reset
display chords
guitar tuner
edit
Autoscroll
slow
fast
+/-
esc
set tempo
stop
Strumming
There is no strumming pattern for this song yet. and get +5 IQ
guitar
WAH-WAH RIFF PRINCIPAL:      
  
    Am                C      G                  
|------------------------------------|
|------------------------------------|
|----9-9-9---------------------------|
|--7-7-7-7--7--9-7--5-5---5-0--------|
|--7-7-7-7--7-----------------5-5-5--|
|------------------------------------|


Am      C - G    Am                   D - G
BUSCA UNA PALABRA,  QUE TE SIRVA DE RESPUESTA

Am      C - G    Am                   D - G
PIDELE A DIOS,       QUE ORDENE TUS SENTIMIENTOS


RIFF ESTRIBILLOS

    C                  D               G                  A      
|-12--12------14--------14--------|-12-----------------------------|
|-12--12--12-----12--12----12--12-|-----15b---12-------------------|
|---------------------------------|--------------14b-----------5-7-|
|---------------------------------|-------------------------5-7----|
|---------------------------------|----------------------5-7-------|
|---------------------------------|------------------5-8-----------|

C      D           A
SUEÑOS QUE SE QUEDAN 

C      D           A 
AL BORDE DEL CAMINO

C       D        G       A
IDEALES COGIDOS CON IMPERDIBLES


- WAH-WAH RIFF PRAL.-
 
Am      C - G    Am                   D - G
LA ROSA DE LOS VIENTOS QUE GUIA MI DESTINO 

Am      C - G    Am                   D - G
HACE QUE SIEMPRE OLVIDE LO QUE PIENSO

C      D       A
PIERDO EL JUICIO 

C      D       A
Y ME ARREPIENTO

C         D            G        A      
COMO UN CHIQUILLO NUNCA ENCUENTRO LO QUE BUSCO


-WAH RIFF PRAL.-

Am      C - G    Am                   D - G
REPASO MI AGENDA Y BUSCO TU NUMERO

Am      C - G    Am                   D - G
PERO ROMPI ESA HOJA CON EL ULTIMO RECUERDO

C      D        A
IMAGENES INVISIBLES 

C      D        A
QUE TU  CREES VER

C        D        G             A
TESOROS QUE APARECEN Y VUELVEN A DESAPARECER


-WAH RIFF PRAL. + RIFF ESTRIBILLOS.

            
            
Suggest correction
Creating personal tab
Creating personal tab
You can edit any tab online and save it as your Personal.

You can edit, replace or remove any tab part or add personal notes – all changes will be seen only by you.

Personal tabs can be accessed anytime from any device, even offline.
Learn more »
Give kudos to tab author, rate the tab!
1 2 3 4 5
comments
print report bad tab
guest
Wanna post a correction for this tab? Suggest correction