Oops, an error
Loading. Please wait.

Rompo Tu Silencio tab

12 views 1 this week
no commentswrite comment
1 2 3 4 5
3 more votes to show rating
add to favorites
×
Save as Personal and add changes to this tab that will be seen only by you. Learn more ›
×
You can save this tab as Personal to edit and correct it or add notes. All changes will be seen only by you. Learn more »
launch autoscroll
font size
0
reset
how to read this tab
guitar tuner
edit
Autoscroll
slow
fast
+/-
esc
set tempo
stop
Intro:                                    
RE      MI-SI      SI-LA
RE      MI-SI      SI-LA            Play x 2   
RE      MI-SI      SI-LA
MI

RE   MI-SI   SI-LA      
HE VISTO EL CIELO
RE   MI-SI   SI-LA      
A TUS ESPALDAS
RE   MI-SI   SI-LA      
HE OIDO EL MIEDO 
RE   MI-SI   SI-LA      
SALIENDO DE TU GARGANTA


SI   RE-LA  LA-SOL
ME HE OBSESIONADO 
SI   RE-LA  LA-SOL
CON TUS EFECTOS
SI   RE-LA  LA-SOL
HE VISTO EL ROSTRO
SI     RE-LA     LA-SOL
DEL QUE ARAÑA MIS RECUERDOS


LA          MI            FA#           RE
SENTADO A TU LADO, LA CANCION DE LA AGONIA
LA          MI            FA#      RE
ASES MARCADOS, QUE DESCUBRO CADA DIA
LA         MI          SI        RE
INTENTO REFUGIARME, BUSCO MI DESTIERRO
LA         MI          SI        RE
Y POR MAS QUE LO INTENTO, NADA ENTIENDO.


RE      MI-SI      SI-LA
RE      MI-SI      SI-LA      Play X 2      
RE      MI-SI      SI-LA
MI

RE   MI-SI   SI-LA      
SIENTO MI INSTINTO
RE   MI-SI   SI-LA      
LATIR CON FUERZA
RE   MI-SI   SI-LA      
NOTO LA RABIA
RE    MI-SI    SI-LA      
QUE ESTREMECE MIS ENTRAÑAS


SI   RE-LA  LA-SOL
BUSCO EL DESAGUE
SI   RE-LA  LA-SOL
A ESTE ABISMO
SI   RE-LA  LA-SOL
ES SOLO UN RITO
SI    RE-LA       LA-SOL
QUE PROVOCA MIS INSTINTOS


LA          MI            FA#      RE
SENTADO A TU LADO, ROMPO MI SILENCIO
LA          MI          FA#         RE
TIEMPOS DE ODIO, LOCURA Y DESPRECIO
LA          MI            SI        RE
ROMPAMOS FRONTERAS, ABRIENDO NUEVOS CAMINOS
LA         MI            SI               RE
RODANDO TAL VEZ, HACIA EL FILO DE LO PROHIBIDO.

solo                  
                  Play x 2
|-----------------------------------------------|
I--2---2---2---2---2-----5---5------3---3-------|
|----2---2---2---2---2-----2----2-2---2---2--2--|
|-----------------------------------------------|
|-----------------------------------------------|
|-----------------------------------------------|


                  Play x 2
|-9----9----9----9----9-----12----12--------10-----10-------|
|---10---10---10---10---10-----10----10--10-----10----10-10-|
|-----------------------------------------------------------|
|-----------------------------------------------------------|
|-----------------------------------------------------------|
|-----------------------------------------------------------|


Parte lenta:
  SI              SI              SI
|---/------------/---/-----------/--/--------------------------|
|---/------------/---/-----------/--/--------------------------|
|---/------------/---/-----------/--/--------------------------|
|-9-/-----7------/--9/------7----/-9/------7--7--9--9-8-7------|
|-9-/-7-9----9-7-/--9/-7-9----9-7/-9/-7--9--9-------------9-8-7|
|7--/------------/-7-/-----------/7-/--------------------------|


  SI               SI              SI
|---/------------/--/-----------/--/---------------------------|
|---/------------/--/-----------/--/---------------------------|
|-4-/-----2------/-4/------2----/-4/-----2---2--4--4-3-2-------|
|-4-/-2-4----4-2-/-4/-2-4----4-2/-4/-2-4---4-------------4-3-2-|
|2--/------------/2-/-----------/2-/---------------------------|
|---/------------/--/-----------/--/---------------------------|


  SI                  SI                    SI
|----/---------------/-----/----------------/---/----------------
|----/---------------/-----/----------------/---/----------------
|--16/-------14------/---16/--------14------/-16/--------14---14-
|--16/--14-16--16-14-/---16/--14--16---16-14/-16/--14--16---16---
|-14-/---------------/-14--/----------------/14-/----------------
|----/---------------/-----/----------------/---/----------------

--------------------------------|
--------------------------------|
-16--16-15-14-------------------|
--------------16-15-14----------|
--------------------------------|
--------------------------------|


RE   MI-SI   SI-LA      
HE VISTO EL CIELO
RE   MI-SI   SI-LA      
A TUS ESPALDAS
RE   MI-SI   SI-LA      
HE OIDO EL MIEDO 
RE   MI-SI   SI-LA      
SALIENDO DE TU GARGANTA


SI   RE-LA  LA-SOL
ME HE OBSESIONADO 
SI   RE-LA  LA-SOL
CON TUS EFECTOS
SI   RE-LA  LA-SOL
HE VISTO EL ROSTRO
SI     RE-LA     LA-SOL
DEL QUE ARAÑA MIS RECUERDOS


LA          MI            FA#           RE
SENTADO A TU LADO, LA CANCION DE LA AGONIA
LA          MI            FA#      RE
ASES MARCADOS, QUE DESCUBRO CADA DIA
LA         MI          SI        RE
INTENTO REFUGIARME, BUSCO MI DESTIERRO
LA         MI          SI        RE
Y POR MAS QUE LO INTENTO, NADA ENTIENDO.


LA      MI      SI      RE
NO, NO, NO NO NO NO NO NO NO

LA      MI      SI      RE
NO, NO, NO NO NO NO NO NO NO


Final:

 SI               SI             SI
|--/------------/---/-----------|---/---------------------------|
|--/------------/---/-----------|---/---------------------------|
|--/------------/---/-----------|---/---------------------------|
|-9/------7-----/-9-/------7----|-9-/------7---7--9--9-8-7------|
|-9/--7-9---9-7-/-9-/--7-9---9-7|-9-/-7--9---9-------------9-8-7|
|7-/------------/7--/-----------|7--/---------------------------|


Solo final sobre lo anterior:
|------------------------------------|
|------------------------------------|
|------------------------------------|
|-9-9-9-9--9--12--12-12-14--14-16-0--|
|------------------------------------|
|------------------------------------|

            
            
Suggest correction
Creating personal tab
Creating personal tab
You can edit any tab online and save it as your Personal.

You can edit, replace or remove any tab part or add personal notes – all changes will be seen only by you.

Personal tabs can be accessed anytime from any device, even offline.
Learn more »
Give kudos to tab author, rate the tab!
1 2 3 4 5
comments
print report bad tab
guest
Wanna post a correction for this tab? Suggest correction