Oops, an error
Loading. Please wait.

You're Wild tab

17 views 1 this week
no commentswrite comment
1 2 3 4 5
3 more votes to show rating
add to favorites
×
Save as Personal and add changes to this tab that will be seen only by you. Learn more ›
×
You can save this tab as Personal to edit and correct it or add notes. All changes will be seen only by you. Learn more »
launch autoscroll
font size
0
reset
how to read this tab
guitar tuner
edit
Autoscroll
slow
fast
+/-
esc
set tempo
stop
Progresion a lo largo de toda la canción:
 MI         LA        RE        LA
|------------------------------------|
|-----------------3-----3------------|
|--------------2----2---------2------|
|----2--0----2--------0---------2-0--|
|--2-------0-------------------------|
|------------------------------------|

RIFF en inicio:

|--------------0--------0----------|-----------0--------0----------|
|--12--14--15----15--14---14-12-12-|--9-10--12---12--10---10--9--9-|
|----------------------------------|-------------------------------|
|----------------------------------|-------------------------------|
|----------------------------------|-------------------------------|
|----------------------------------|-------------------------------|


MI      LA    RE    LA
SHE PLAYS IN THE STREET
MI      LA    RE    LA
ONLY EVERYTIME
MI      LA    RE    LA
I LIKE HER SONGS
MI      LA    RE    LA
HAVE YOU ANY FOR ME
MI      LA    RE    LA
SHE SEEMS VERY NICE
MI      LA    RE    LA
AND SEEMS VERY PRETTY
MI      LA    RE    LA
I´M GOING TO PLAY A SONG
MI      LA    RE    LA
A SONG FOR YOU

RIFFS ESTRIBILLO
   MI  LA  RE      LA        MI  LA  RE     LA     
|----------2--------------|----------2------0----0---|
|----------3--------------|----------3---5----3------|
|----------2--------------|----------2---------------|
|---2---------2--0--------I---2----------------------|
|-------0-----------------|-------0------------------|
|-0---3-------------3--0--|-0---3--------------------|

MI      LA      RE      LA
COME ON BABY, COME ON BABY
MI      LA      RE      LA
COME ON BABY, COME ON BABY
MI   LA   RE  LA
WILD, WILD, WILD


--Repetir RIFF inicio-------

MI      LA    RE    LA
I´M GOING TO PLAY A SONG
MI      LA    RE    LA
A SONG FOR YOU
MI      LA    RE    LA
AND GO, GO, GO
MI      LA    RE    LA
GO TO THE HEAVEN

MI            DO
I REMEMBER WHEN YOU
SOL            RE
ARRIVED TO THE CITY
MI            DO
HAVE YOU EVER TRIED
SOL         RE
GO TO THE HEAVEN

MI      LA    RE    LA
LET MY PUT LOVE INTO YOU
MI      LA    RE    LA
LET MY PUT LOVE INTO YOU
MI      LA    RE    LA
MY LOVE INTO YOU

MI      LA    RE    LA
COME ON BABY, YOU´RE WILD
MI      LA    RE    LA
COME ON BABY, YOU´RE WILD
MI      LA    RE    LA
COME ON BABY, YOU´RE WILD
MI      LA    RE    LA
WILD, WILD

      -SOLO 'MI'-

-----RIFF inicio-------

MI      LA    RE    LA
THERE IS NOBODY IN THE STREET
MI      LA    RE    LA
I REMEMBER YOUR SONGS
MI      LA    RE    LA
SHE WENT VERY FAR
MI      LA    RE    LA
AND CLOSED HER HEART FOR ME
MI      LA    RE    LA
LET MY PUT LOVE INTO YOU
MI      LA    RE    LA
LET MY PUT LOVE INTO YOU
MI      LA    RE    LA
MY LOVE INTO YOU

MI      LA    RE    LA
COME ON BABY, YOU´RE WILD
MI      LA    RE    LA
COME ON BABY, YOU´RE WILD
MI      LA    RE    LA
COME ON BABY, YOU´RE WILD
MI      LA    RE    LA
WILD, WILD


SOLO FINAL en 'MI'.

            
            
Suggest correction
Creating personal tab
Creating personal tab
You can edit any tab online and save it as your Personal.

You can edit, replace or remove any tab part or add personal notes – all changes will be seen only by you.

Personal tabs can be accessed anytime from any device, even offline.
Learn more »
Give kudos to tab author, rate the tab!
1 2 3 4 5
comments
print report bad tab
guest
Wanna post a correction for this tab? Suggest correction