Oops, an error
Loading. Please wait.

Hey tab

version 2
version 2

Whole song

Interactive

849 views 1 this week
no commentswrite comment
1 2 3 4 5
1 last vote to show rating
add to favorites
×
Save as Personal and add changes to this tab that will be seen only by you. Learn more ›
×
You can save this tab as Personal to edit and correct it or add notes. All changes will be seen only by you. Learn more »
launch autoscroll
font size
0
reset
how to read this tab
guitar tuner
edit
Autoscroll
slow
fast
+/-
esc
set tempo
stop
Difficulty
Hey is in the first guitar hero and I think this is the most accurate

Key
/Slide


Tuning Standard  Low to High: EADGBE

Intro/ Main Riff:

 (Intro Only)
E -----------/-------------------------------------------|
B -----------/:------------------------------------------|
G -----------/-------------------------------------------|      X 13
D -----------/---------2---------------------------------|
A -----------/:-----0---4-2------------------------------|
E ----12/(0)-/-0-4-0-------------------------------------|


On the 13th time it has an ending that does something like this

E --------------------------------------------------|
B --------------------------------------------------|
G --------------------------------------------------|
D --------2-------------2---------------------------|
A ------0---4-0-2-2---0---4-2-----------------------|
E 0-4-0-------------4-------------------------------|

 Then it does the main riff one last time and the pre-chorse that follows goes

E --------------------------------------------------|
B --------------------------------------------------|
G --------------------------------------------------|
D -----2-1------------------------------------------|
A ---2-----4-2--------------------------------------|
E -4------------------------------------------------|


The chorse is a little tricky due to the sliding part

E --------------------------------------------------|
B --------------------------------------------------|
G --------------------------------------------------|
D -------------------2/4^^^^LET RING-4/2-2-1-1------|
A -4-4/7^^^^LET RING--------------------------------|
E --------------------------------------------------|


That is repeated only once but when you slide from 2 to 4 on the D string you play the 
fret 9 times, the 6th fret 3 times the 7th fret 3 times then go back to the 6th fret and 
2 times like this

E --------------------------------------------------|
B --------------------------------------------------|
G --------------------------------------------------|
D -2/4-4-4-4-4-4-4-4-6-6-6-7-7-6-6------------------|
A --------------------------------------------------|
E --------------------------------------------------|

then it goes back to the main riff but when it happens it has its for the 6th time it 
that extra ending again that goes like this

E --------------------------------------------------|
B --------------------------------------------------|
G --------------------------------------------------|
D --------2-------------2---------------------------|
A ------0---4-0-2-2---0---4-2-----------------------|
E 0-4-0-------------4-------------------------------|


then do that whole part again


when you repeat the last step it does the pre-chorse that goes like this

E --------------------------------------------------|
B --------------------------------------------------|
G --------------------------------------------------|
D -----2-1------------------------------------------|
A ---2-----4-2--------------------------------------|
E -4------------------------------------------------|


then it goes to the chorse and the part after that goes like this

E --------------------------------------------------|
B --------------------------------------------------|
G --------------------------------------------------|
D -------------------2/4^^^^LET RING-4/2-2-1-1------|  x 2
A -4-4/7^^^^LET RING--------------------------------|
E --------------------------------------------------|

E --------------------------------------------------|
B --------------------------------------------------|
G --------------------------------------------------|
D -2/4-4-4-4-4-4-4-4-6-6-6-7-7-6-6------------------|
A --------------------------------------------------|
E --------------------------------------------------|


now it goes to the bridge/ending

E --------------------------------------------------|
B --------------------------------------------------|
G --------------------------------------------------|
D -----1-2-1-----------2---------2------------------|  x 6
A -4-4-------4-2-----2---------1--------------------|
E ---------------0-4-----0-1-2----------------------|

the ending is simple which just goes

E --------------------------------------------------|
B --------------------------------------------------|
G --------------------------------------------------|
D -----------------2--------------------------------|  x 3
A -4-2-----------1----------------------------------|
E -----4-0-4-0-2------------------------------------|


the last riff is just

E --------------------------------------------------|
B --------------------------------------------------|
G --------------------------------------------------|
D ---------2----------------------------------------|
A -4-4---0---4-2------------------------------------|
E -----4---------0^^^^^^^^LET RING------------------|
Suggest correction
Creating personal tab
Creating personal tab
You can edit any tab online and save it as your Personal.

You can edit, replace or remove any tab part or add personal notes – all changes will be seen only by you.

Personal tabs can be accessed anytime from any device, even offline.
Learn more »
Give kudos to tab author, rate the tab!
1 2 3 4 5
comments
print report bad tab
guest
Wanna post a correction for this tab? Suggest correction