Oops, an error
Loading. Please wait.

Soy Bomb bass

version 1
version 1

Whole song

Interactive

2,633 views 1 this week
1 commentread comment
1 2 3 4 5
x 4
add to favorites
×
Save as Personal and add changes to this tab that will be seen only by you. Learn more ›
×
You can save this tab as Personal to edit and correct it or add notes. All changes will be seen only by you. Learn more »
launch autoscroll
font size
0
reset
guitar tuner
backing track
0:00
0:00
edit
Autoscroll
slow
fast
+/-
esc
set tempo
stop
Author
Difficulty
Guitar Into 1:

------------------------------------|
------------------------------------|  x4
------------------------------------|
------------------------------------|

Verse 1:

------------------------------------|
------------------------------------|  x2
------------------------------------|
--0-00--3-33--5-55-6-5-3------------|

------------------------------------|
------------------------------------|  x1
--0-00--3-33--5-55-6-5-3------------|
------------------------------------|

------------------------------------|
------------------------------------|  x1
------------------------------------|
--0-00--3-33--5-55-6-5-3------------|

Chorus 1:

------------------------------------|
----------------2---5------4---7---9|  x1
-----2--5----3----------5-----------|
--3---------------------------------|

------------------------------------|
------------------------------------|  x1   (optional)
--2--3---2---0----------------------|
------------------3---2---0---------|

Guitar Into 2:

------------------------------------|
------------------------------------|  x2
------------------------------------|
------------------------------------|

Verse 2:

------------------------------------|
------------------------------------|  x2
------------------------------------|
--0-00--3-33--5-55-6-5-3------------|

------------------------------------|
------------------------------------|  x1
--0-00--3-33--5-55-6-5-3------------|
------------------------------------|

------------------------------------|
------------------------------------|  x1
------------------------------------|
--0-00--3-33--5-55-6-5-3------------|

Chorus 2:

------------------------------------|
----------------2---5------4---7---9|  x1
-----2--5----3----------5-----------|
--3---------------------------------|

------------------------------------|
------------------------------------|  x1   (optional)
--2--3---2---0----------------------|
------------------3---2---0---------|

Guitar Into 3:

------------------------------------|
------------------------------------|  x1
------------------------------------|
------------------------------------|

Bass Intro 1:

------------------------------------|
------------------------------------|  x1
------------------------------------|
--0-00--3-33--5-55-6-5-3------------|

Guitar Solo:

------------------------------------|
------------------------------------|  x1
---3--3----------0----0------3---3----|
---------3---3--------------------|

------------------------------------|
------------------------------------|  x1
---3----3-----------0---0----5---5--|
------------3---3--------------------|

------------------------------------|
------------------------------------|  x1
---3----3-------------0---0--3---3--|
------------3---3-------------------|

------------------------------------|
------------------------------------|  x1
---3--33-----------0------3---------|
---------3--33----------------------|

Drum Solo:

------------------------------------|
------------------------------------|  x1
------------------------------------|
------------------------------------|

------------------------------------|
------------------------------------|  x1
--3--33---------------0----3--------|
-------------3---33-----------------|

Bass Fill:

(/ means slide)

------------------------------------|
------------------------------------|  x1   do this very slowly
--12/0----------0/12----------------|
------------------------------------|



------------------------------------|
------------------------------------|
--77777---55555---33333--0--3333--0-|
------------------------------------|

------------------------------------|
------------------------------------|  x1
---333---0---33---0---3--0----------|
------------------------------------|

------------------------------------|
------------------------------------|  x1   (optional)
--2--3---2---0----------------------|
------------------3---2---0---------|

Guitar Intro 4:

------------------------------------|
------------------------------------|  x4
------------------------------------|
------------------------------------|

Verse 3:

------------------------------------|
------------------------------------|  x2
------------------------------------|
--0-00--3-33--5-55-6-5-3------------|

------------------------------------|
------------------------------------|  x1
--0-00--3-33--5-55-6-5-3------------|
------------------------------------|

------------------------------------|
------------------------------------|  x1
------------------------------------|
--0-00--3-33--5-55-6-5-3------------|

Chorus 3:

------------------------------------|
----------------2---5------4---7---9|  x1
-----2--5----3----------5-----------|
--3---------------------------------|

------------------------------------|
------------------------------------|  x1   (optional)
--2--3---2---0----------------------|
------------------3---2---0---------|

------------------------------------|
----------------2---5------4---7---9|  x1
-----2--5----3----------5-----------|
--3---------------------------------|

------------------------------------|
------------------------------------|  x1   (optional)
--2--3---2---0----------------------|
------------------3---2---0---------|

Pre Outro:


------------------------------------|
------------------------------------|  x1
------------------------------------|
------------------------------------|

------------------------------------|
------------------------------------|  x1
-------5-------------3--------------|
------------------------------------|

------------------------------------|
------------------------------------|  x1
------------------------------------|
------------------------------------|

------------------------------------|
------------------------------------|  x1
-------5----3----5-----7-----10-----|
------------------------------------|

Outro:

-----------------------------------------------|
-----------------------------------------------|  x1
-00-3-5-66-5-3-00-3-5-66-5-3-0-3-5-66666666\0--|
-----------------------------------------------|


------------------------------------|
------------------------------------|  x1
------------------------------------|
--------0---------------------------|

            
            
Suggest correction
Creating personal tab
Creating personal tab
You can edit any tab online and save it as your Personal.

You can edit, replace or remove any tab part or add personal notes – all changes will be seen only by you.

Personal tabs can be accessed anytime from any device, even offline.
Learn more »
comments
print report bad tab
1 comment total.
0 reply
xxZERO320xx 446 Feb 19, 2008 07:10 PM

this tab sounds pretty good, but the chorus sounds a little off. better than i can do though, i tried listening to the song for the notes but the bass is really hard to hear in it, overall good tab, glad someone could hear the bass.

guest
You may want to rate the tab now too:
select rating
Wanna post a correction for this tab? Suggest correction