Oops, an error
Loading. Please wait.

Soy Bomb tab

version 2
version 2

Whole song

Interactive

24,327 views 27 this week
21 commentsread comments
1 2 3 4 5
x 26
add to favorites
×
Save as Personal and add changes to this tab that will be seen only by you. Learn more ›
×
You can save this tab as Personal to edit and correct it or add notes. All changes will be seen only by you. Learn more »
launch autoscroll
font size
0
reset
how to read this tab
guitar tuner
backing track
0:00
0:00
edit
Autoscroll
slow
fast
+/-
esc
set tempo
stop
Author
Difficulty
it's my fisrt tab,and most of it is accurate,but i'm still breaking apart the solo so 
me if it's off.


h=hammer-on   b=bend   p=pull-off     /=slide up   \=slide down


-----------------------|
-----------------------|
-----------------------|
-----------------------| x2 main riff #1
-----------------------|
---0-00-3-33-5-5-6-5-3-|


---0-00-3-33-5-5-6-5-3-|
-----------------------|
-----------------------|
-----------------------| x2 main riff #2
-----------------------|
-----------------------|

---0-------------------------------------------------------------|
-------3-3-5-3--------------3h4-5--3-3-5-3-----------------------|
---------------4-2-0-----------------------4-2-0--------0---0----|
---------------------2---------------------------2---0h2-0h2-2p0-|
-----------------------------------------------------------------|
-----------------------------------------------------------------|


------------------------------------------------|
------------------------------------------------|
------------------------------------------------|
-----------------5--------7--9------------------| main riff #3
---------5-3--7----5---9--------2-3-2-0---------|
---3--7---------------------------------3-2-0---|

play main riff #1 x1

play main riff #2 x2


---0----------------------------------------------------------------------|
-------3-3-5-3--------------3h4h5--3h4-5--3-3-5-3-------------------------|
---------------4-2-0------------------------------4-2-0-2b--2b-2b-2b-2-2--|
---------------------2----------------------------------------------------|
--------------------------------------------------------------------------|
--------------------------------------------------------------------------|

play main riff #3 x1

play main riff #1 x1

-------------------------------------------------------------------|
-------3--5-3----6-6-6p5-3---------3--5-3-----6-6-6p5-3------------|
-----5---------------------0-----5---------------------------------|
---5----------5----------------5----------5------------------------|
-------------------------------------------------------------------|
-------------------------------------------------------------------|

----------------------------------------------------------|
-----3-5-3----6-8-6p5-3-------3-5-3---3-5---------3-------|
---5-------0------------0---5-------5----------------5--4-|
----------------------------------------------------------|
----------------------------------------------------------|
----------------------------------------------------------|


-----------------------------------------------------------------------------|
-----------------------------------------------------------------------------|
---99999---77777---55555---0--5555--0---555--0--55--0--5---------------------|
---99999---77777---55555---0--3333--0---333--0--33--0--5---------------------|
---77777---55555---33333---0--3333--0---333--0--33--0--3--2-3-2-0------------|
------------------------------------------------------------------3-2-0------|

play main riff #1 x2

---12----15--14--13--12----10/11--12----17--15--14--12--------------|
---12----15--14--13--12----10/11--12----17--15--14--12--------------|
---12----15--14--13--12----10/11--12----17--15--14--12--------------|
--------------------------------------------------------------------|
--------------------------------------------------------------------|
--------------------------------------------------------------------|


-------------------------------------------10-10-10-10-10-7-7-7-------------|
-----------------------------------------7-10-10-10-10-10-7-7-7-------------|
-------------------------------------7-9------------------------9-9-9-7-5-4-|
------------------5--------7------7-9---------------------------9-9-9-7-5-4-|
---------5--3--7-----5--9-----7-9-------------------------------------------|
---3--7---------------------------------------------------------------------|


----------------------------------------------------------------------------|
----------------------------------------------------------------------------|
----------------------------------7--5-----------------------7--5--7--9--12-|
----------------------------------7--5-----------------------7--5--7--9--12-|
-2-3-2-0--------------------------5--3-----------------------5--3--5--7--10-|
---------3-2-0-00-3-33-5-5-6-5-3--------0-00-3-33-5-5-6-5-3-----------------|


---00-3-5-66-5-3-00-3-5-66-5-3-0-3-5-66666666\---|
---00-3-5-66-5-3-00-3-5-66-5-3-0-3-5-66666666\---|
-------------------------------------------------|
-------------------------------------------------|
-------------------------------------------------|
-------------------------------------------------|

            
            
Suggest correction
Creating personal tab
Creating personal tab
You can edit any tab online and save it as your Personal.

You can edit, replace or remove any tab part or add personal notes – all changes will be seen only by you.

Personal tabs can be accessed anytime from any device, even offline.
Learn more »
comments
print report bad tab
21 comments total. Showing first comments.
0 reply
idiotboy1313 20 Apr 01, 2007 07:07 AM

awesome tab

0 reply
RiseAgainst77 10 Apr 24, 2007 10:16 AM

perfect except you missed a note on


D ----------------------------------
A -2-3-2-0--------------------------
E ---------3-2-0-00-3-33-5-5-6-5-3--
its' acctually
D -------------------------------------
A 2--2-3-2-0---------------------------
E ------------3-2-0-00-3-33-5-5-6-5-3--

0 reply
ctc_rule 51 Apr 24, 2007 10:50 AM

well i don't think that's correct,but i could be wrong.

play each part leading up to that point,and notice that an extra note like you put in will sound like one to many.usualy the last note before the start of the riff compensates for the extra note.

i do thank you for posting that though,and in good faith.in the end it's up to each player to tweak it a little if he/she wants to.

guest
You may want to rate the tab now too:
select rating
Wanna post a correction for this tab? Suggest correction