Oops, an error
Loading. Please wait.

Soy Bomb Tab

version 3
version 3

Whole song

Interactive

4,815 views 3 this week
3 commentsread comments
1 2 3 4 5
please rate
add to favorites
launch autoscroll
font size
0
reset
how to read this tab
guitar tuner
Autoscroll
slow
fast
+/-
esc
set tempo
stop
Help us to improve Ultimate-Guitar.com Take our survey!
×
Author
Difficulty
-------------------------------------------------------------------------------
Tabbed by: fretburner1492
Email: jmjofus@msn.com

Tuning: E,A,D,G,B,e



e|------------------------------|-------------------------------------|
B|------------------------------|-------------------------------------|
G|------------------------------|--------------------------0----------|
D|------------------------------|---------------------0-h2---0-h1-h2--|
A|----------------0--0-1--------|----2-3-2-0--------------------------|
E|--0--0-0-3--3-3---------3--0--|------------3-2-0--------------------|
                                X4

e|-------------------|--------------------------|
B|-------------------|--------------------------|
G|-------------------|--------------------------|
D|--0-0-2-0----------|--------------2----1-4-2--|
A|----------2-0------|-------2-0--4---2---------|
E|--------------3-0--|--0--4--------------------|




| /  slide up
| \  slide down
| h  hammer-on
| p  pull-off
| ~  vibrato
| +  harmonic
| x  Mute note
===============================================================================
Suggest correction
Give kudos to tab author, rate the tab!
1 2 3 4 5
comments
print report bad tab
3 comments total.
0 reply
fretburner1492 37 wrote on May 10 2007, 04:27 pm

Wow! This Tab is Amazing!

0 reply
gunsNroses140 31 wrote on June 20 2007, 01:49 pm

When I played the first part of the intro, it sounded wrong. See the other version of this song.

PS: Why did you say your tab is amazing!?

-1 reply
Gbson Guy 10 wrote on August 18 2007, 04:11 pm

wow, this is completely inaccurate. i no ur a noob cuz u never go above the 4th fret. there 22 frets on a guitar for a reeson dumshit

guest
You may want to rate the tab now too:
select rating
Wanna post a correction for this tab? Suggest correction