Oops, an error
Loading. Please wait.

Soy Bomb tab

version 5
version 5

Whole song

Interactive

5,676 views 3 this week
1 commentread comment
1 2 3 4 5
x 7
add to favorites
×
Save as Personal and add changes to this tab that will be seen only by you. Learn more ›
×
You can save this tab as Personal to edit and correct it or add notes. All changes will be seen only by you. Learn more »
launch autoscroll
font size
0
reset
how to read this tab
guitar tuner
backing track
0:00
0:00
edit
Autoscroll
slow
fast
+/-
esc
set tempo
stop
Difficulty
SOY BOMB
As recorded by Honest Bob And The Factory-to-Dealer Incentives
(Released as a Single in 2006)


Gtr I  (EADGBE)- Electric Gtr. Clean     - 'Chris Rigopulos - Lead Guitar'
Gtr II (EADGBE)- Electric Gtr. Overdrive - 'Dan Schmidt     - Rythme Guitar'
Bass   (EADG)  - Electric Bass Finger    - 'Greg Huang      - Bass'


[A] Intro
  
  Gtr II
|---------------------------|   |---------------------------|
|---------------------------|   |---------------------------|
|---------------------------|   |---------------------------|
|---------------------------|   |---------------------------|
|---------------------------|   |---------------------------|
|-0--0-0-3--3-3-5--5-6--5-3-|   |-0--0-0-3--3-3-5--5-6--5-3-|
|                           |   |                           |
| Gtr I                     |X2 |                           |X2
|---------------------------|   |-0--0-0-3--3-3-5--5-6--5-3-|
|---------------------------|   |---------------------------|
|---------------------------|   |---------------------------|
|---------------------------|   |---------------------------|
|---------------------------|   |---------------------------|
|-0--0-0-3--3-3-5--5-6--5-3-|   |---------------------------|


[B] Verse 1

  Gtr. II
|---------------------------------|-----------------------------|
|---------------------------------|-----------------------------|
|---------------------------------|-----------------------------|
|---------------------------------|-----------------------------|
|---------------------------------|-----------------------------|
|-0-0-0-3-3-3-5-----5-6-----5-3---|-0-0-0-3-3-3-5-5-6-----5-3---|
| Gtr. I                          |                             |
|---------------------------------|-----------------------------|
|-5-----------3-----3-5--3--------|-------------------------3h4-|
|---------------------------3-2-0-|-----------------------------|
|---------------------------------|-2---------------------------|
|---------------------------------|-----------------------------|
|---------------------------------|-----------------------------|
| Bass                            |                             |
|---------------------------------|-----------------------------|
|---------------------------------|-----------------------------|
|---------------------------------|-----------------------------|
|-0-0-0-3-3-3-5-----5-6-----5-3---|-0-0-0-3-3-3-5-5-6-----5-3---|

  Gtr. II
|---------------------------------|-------------------------------|
|---------------------------------|-------------------------------|
|---------------------------------|-------------------------------|
|---------------------------------|-------------------------------|
|-0-0-0-3-3-3-5-----5-6-----5-3---|-------------------------------|
|---------------------------------|-0-0-0-3-3-3-5---5-6-----5-3---|
| Gtr. I                          |                               |
|---------------------------------|-------------------------------|
|-5-----------3-----3-5--3--------|-------------------------------|
|---------------------------3-2-0-|-----------------0-------0-----|
|---------------------------------|-2-----------0h2---0h2-----2p0-|
|---------------------------------|-------------------------------|
|---------------------------------|-------------------------------|
| Bass                            |                               |
|---------------------------------|-------------------------------|
|---------------------------------|-------------------------------|
|-0-0-0-3-3-3-5-----5-6-----5-3---|-------------------------------|
|---------------------------------|-0-0-0-3-3-3-5---5-6-----5-3---|

  Gtr. II
|-------------------------|---------------------------|
|---8-8--8-8----5-5--5-5--|---7-7--7-7--4-------------|
|---7-7--7-7----5-5--5-5--|---7-7--7-7--4-------------|
|-------------------------|---------------------------|
|-------------------------|---------------------------|
|-------------------------|---------------------------|
| Gtr. I                  |                           |
|-------------------------|---------------------------|
|-------------------------|---------------------------|
|-------------------------|----------2--4-------------|
|-----------------2----5--|-----4---------------------|
|-----2----5--3-----------|-5-------------2-3-2-0-----|
|-3-----------------------|-----------------------3-2-|
| Bass                    |                           |
|-------------------------|----------2--4-------------|
|-----------------2----5--|-----4---------------------|
|-----2----5--3-----------|-5-------------------------|
|-3-----------------------|---------------------------|

  Gtr. II
|---------------------------|---------------------------|
|---------------------------|---------------------------|
|---------------------------|---------------------------|
|---------------------------|---------------------------|
|---------------------------|---------------------------|
|-0-0-0-3-3-3-5-5-6-----5-3-|-0-0-0-3-3-3-5-5-6-----5-3-|
| Gtr. I                    |                           |
|---------------------------|-0-0-0-3-3-3-5-5-6-----5-3-|
|---------------------------|---------------------------|
|---------------------------|---------------------------|
|---------------------------|---------------------------|
|---------------------------|---------------------------|
|-0-0-0-3-3-3-5-5-6-----5-3-|---------------------------|


[C] Verse 2

  Gtr. II 
|---------------------------------|-------------------------------|
|---------------------------------|-------------------------------|
|---------------------------------|-------------------------------|
|---------------------------------|-------------------------------|
|---------------------------------|-------------------------------|
|-0-0-0-3-3-3-5-----5-6-----5-3---|-0-0-0-3-3-3-5---5-6-----5-3---|
| Gtr. I                          |                               |
|---------------------------------|-------------------3-----------|
|-5-----------3-----3-5--3--------|-------------3-5---------3h4-5-|
|---------------------------3-2-0-|-------------------------------|
|---------------------------------|-2-----------------------------|
|---------------------------------|-------------------------------|
|---------------------------------|-------------------------------|
| Bass                            |                               |
|---------------------------------|-------------------------------|
|---------------------------------|-------------------------------|
|---------------------------------|-------------------------------|
|-0-0-0-3-3-3-5-----5-6-----5-3---|-0-0-0-3-3-3-5---5-6-----5-3---|

  Gtr. II
|-----------------------------------|
|-----------------------------------|
|-----------------------------------|
|-----------------------------------|
|--0--0-0-3-3-3-5-----5-6-----5-3---|
|-----------------------------------|
| Gtr. I                            |
|-----------------------------------|
|-(5)-----------3-----3-5--3--------|
|-----------------------------3-2-0-|
|-----------------------------------|
|-----------------------------------|
|-----------------------------------|
| Bass                              |
|-----------------------------------|
|-----------------------------------|
|--0--0-0-3-3-3-5-----5-6-----5-3---|
|-----------------------------------|

  Gtr. II
|--------------------------------------------|
|--------------------------------------------|
|--------------------------------------------|
|--------------------------------------------|
|--------------------------------------------|
|-0---0-0-3--3-----3-5-------5--6-----5--3---|
| Gtr. I
|--------------------------------------------|
|--------------------------------------------|
|-2b3----------------2b3==2=====2=====2r-2-0-|
|--------------------------------------------|
|--------------------------------------------|
|--------------------------------------------|
| Bass                                       |
|--------------------------------------------|
|--------------------------------------------|
|--------------------------------------------|
|-0---0-0-3--3-----3-5-------5--6-----5--3---|

  Gtr. II
|-------------------------|---------------------------|
|---8-8--8-8----5-5--5-5--|---7-7--7-7----------------|
|---7-7--7-7----5-5--5-5--|---7-7--7-7----------------|
|-------------------------|---------------------------|
|-------------------------|---------------------------|
|-------------------------|---------------------------|
| Gtr. I                  |                           |
|-------------------------|---------------------------|
|-------------------------|---------------------------|
|-------------------------|----------2--4-------------|
|-----------------2----5--|-----4---------------------|
|-----2----5--3-----------|-5-------------2-3-2-0-----|
|-3-----------------------|-----------------------3-2-|
| Bass                    |                           |
|-------------------------|----------2--4-------------|
|-----------------2----5--|-----4---------------------|
|-----2----5--3-----------|-5-------------------------|
|-3-----------------------|---------------------------|

  Gtr. II
|---------------------------|---------------------------|
|---------------------------|---------------------------|
|---------------------------|---------------------------|
|---------------------------|---------------------------|
|---------------------------|---------------------------|
|-0-0-0-3-3-3-5-5-6-----5-3-|-0-0-0-3-3-3-5-5-6-----6-7-|
| Gtr. I                    |                           |
|---------------------------|-0-0-0-3-3-3-5-5-6-----5-3-|
|---------------------------|---------------------------|
|---------------------------|---------------------------|
|---------------------------|---------------------------|
|---------------------------|---------------------------|
|-0-0-0-3-3-3-5-5-6-----5-3-|---------------------------|
| Bass                      |                           |
|---------------------------|---------------------------|
|---------------------------|---------------------------|
|---------------------------|---------------------------|
|---------------------------|-0-0-0-3-3-3-5-5-6-----6-7-|


[D] Chorus

  Gtr. II
|----3-3---3---3--------------------------|----5-5---5-5------3-3--3--3----|
|----5-5---5---5----------6--6-----6--6---|----6-6---6-6------5-5--5--5----|
|----5-5---5---5----------7--7-----7--7---|----5-5---5-5------5-5--5--5----|
|-------------------------8--8-----8--8---|--------------------------------|
|-----------------------------------------|--------------------------------|
|-8---------------------------------------|--------------------------------|
| Gtr. I                                  |                                |
|----------------0------------------------|--------------------------------|
|-5----------3-----3----------------------|-6--6---6p5---------------------|
|--------5-------------------3------------|--------------5-----------------|
|------5----------------------------------|-------------------5------------|
|-----------------------------------------|--------------------------------|
|-----------------------------------------|--------------------------------|
| Bass                                    |                                |
|-----------------------------------------|--------------------------------|
|-----------------------------------------|--------------------------------|
|-----------------------------------------|-8----8-----8-------------------|
|-8----8-------8---6---------6--------6---|----------------8----8-----8----|

  Gtr. II
|----3-3---3---3------------------------|----5-5---5-5--------7-7-----7-7---|
|----5-5---5---5----------6--6---6--6---|----6-6---6-6--------8-8-----8-8---|
|----5-5---5---5----------7--7---7--7---|----5-5---5-5--------7-7-----7-7---|
|-------------------------8--8---8--8---|-----------------------------------|
|---------------------------------------|-----------------------------------|
|---------------------------------------|-----------------------------------|
| Gtr. I                                |                                   |
|----------------0----------------------|-----------------------------------|
|------------3-----3--------------------|-6--6---6p5-------3----------------|
|--------5-------------------3----------|-----------------------------------|
|------5--------------------------------|-----------------------------------|
|---------------------------------------|-----------------------------------|
|---------------------------------------|-----------------------------------|
| Bass                                  |                                   |
|---------------------------------------|-----------------------------------|
|---------------------------------------|-----------------------------------|
|---------------------------------------|-----------------------------------|
|-8----8-------8---6---------6------6---|-1----1-----1-----3----3-------3---|

  Gtr. II
|----3-3---3-3--------------------|----5-5---5-5------3-3--3--3---|
|----5-5---5-5-----6-6-----6--6---|----6-6---6-6------5-5--5--5---|
|----5-5---5-5-----7-7-----7--7---|----5-5---5-5------5-5--5--5---|
|------------------8-8-----8--8---|-------------------------------|
|---------------------------------|-------------------------------|
|---------------------------------|-------------------------------|
| Gtr. I                          |                               |
|---------------------------------|-------------------------------|
|--------3---5--3-----------------|-6--8---6p5--------------------|
|----5---------------0------------|--------------5----------------|
|---------------------------------|-------------------5-----------|
|---------------------------------|-------------------------------|
|---------------------------------|-------------------------------|
| Bass                            |                               |
|---------------------------------|-------------------------------|
|---------------------------------|-------------------------------|
|---------------------------------|-8----8-----8------------------|
|-8----8-----8--6----6--------6---|----------------8----8-----8---|

  Gtr. II
|----3-3---3---3------------------------|
|----5-5---5---5----------6--6-----6-6--|
|----5-5---5---5----------7--7-----7-7--|
|-------------------------8--8-----8-8--|
|---------------------------------------|
|---------------------------------------|
| Gtr. I                                |
|----------------0----------------------|
|------------3-----3-----------------3--|
|--------5-------------------3----------|
|------5--------------------------------|
|---------------------------------------|
|---------------------------------------|
| Bass                                  |
|---------------------------------------|
|---------------------------------------|
|---------------------------------------|
|-8----8-------8---6---------6-------6--|


[E] Break

  Gtr. II
|------------|------------------------------------------------|
|-4----------|------------------------------------------------|
|-4----------|------------------------------------------------|
|------------|------------------------------------------------|
|------------|--3--------3--------3-----1-------1-------1-----|
|------------|------------------------------------------------|
| Gtr. I     |                                                |
|------------|------------------------------------------------|
|-4----------|--5-----------------5-----3---------------3-----|
|-4----------|--------5--------5--------------3-------3-------|
|------------|-----------5----------------------3-------------|
|------------|------------------------------------------------|
|------------|------------------------------------------------|
| Bass       |                                                |
|------------|------------------------------------------------|
|------------|-10-------10-------10-----8-------8-------8-----|
|---------3/-|------------------------------------------------|
|-7----------|------------------------------------------------|

  Gtr. II
|-------------------------------|
|-------------------------------|
|-------------------------------|
|-------------------------------|
|-2-----------------------------|
|-------------------------------|
| Gtr. I                        |
|-------------------------------|
|-------------------------------|
|-4-----------------------------|
|-------------------------------|
|-------------------------------|
|-------------------------------|
| Bass                          |
|-------------------------------|
|-9-8-7-6-------------------6-7-|
|---------9-7-6-------6-7-9-----|
|---------------9-7-9-----------|

  Gtr. II
|----------------------------|---------------|
|----------------------------|------------4--|
|--5--5--5--5--5--3-3-3-3-3--|-4-4-4-4-4--4--|
|--5--5--5--5--5--3-3-3-3-3--|-4-4-4-4-4--4--|
|--3--3--3--3--3--1-1-1-1-1--|-2-2-2-2-2-----|
|----------------------------|---------------|
| Gtr. I                     |               |
|----------------------------|---------------|
|----------------------------|------------4--|
|--5--5--5--5--5--3-3-3-3-3--|-4-4-4-4-4--4--|
|--5--5--5--5--5--3-3-3-3-3--|-4-4-4-4-4--4--|
|--3--3--3--3--3--1-1-1-1-1--|-2-2-2-2-2-----|
|----------------------------|---------------|
| Bass                       |               |
|----------------------------|---------------|
|-10-10-10-10-10--8-8-8-8-8--|-9-9-9-9-9--8--|
|----------------------------|---------------|
|----------------------------|---------------|

  Gtr. II
|-------------|-----------|---------|------------------|
|----------4--|--------4--|------4--|------------------|
|-4-4-4-4--4--|-4-4-4--4--|-4-4--4--|--4---------------|
|-4-4-4-4--4--|-4-4-4--4--|-4-4--4--|--4---------------|
|-2-2-2-2-----|-2-2-2-----|-2-2-----|--2---------------|
|-------------|-----------|---------|------------------|
| Gtr. I      |           |         |                  |
|-------------|-----------|---------|------------------|
|----------4--|--------4--|------4--|------------------|
|-4-4-4-4--4--|-4-4-4--4--|-4-4--4--|------------------|
|-4-4-4-4--4--|-4-4-4--4--|-4-4--4--|------------------|
|-2-2-2-2-----|-2-2-2-----|-2-2-----|-/2-2-3-2-0-------|
|-------------|-----------|---------|------------3-2---|
| Bass        |           |         |                  |
|-------------|-----------|---------|------------------|
|-9-9-9-9--8--|-9-9-9--8--|-9-9--8--|--9---------------|
|-------------|-----------|---------|------------------|
|-------------|-----------|---------|------------------|


[F] Guitar Solo A
 
  Gtrs I, II
|---------------------------|
|---------------------------|
|---------------------------|
|---------------------------| X2
|---------------------------|
|-0-0-0-3-3-3-5-5-6-----5-3-|

  Gtr. II
|-----------------------------|--------------------------------|
|-----------------------------|--------------------------------|
|-----------------------------|--------------------------------|
|-----------------------------|--------------------------------|
|-----------------------------|--------------------------------|
|---0-0-0-3-3-3-5-5-6-----5-3-|---0-0-0-3-3-3---5-5-6------5-3-|
|
| Gtr I
|--12-------------------------|--15------------14------13------|
|--12-------------------------|--15------------14------13------|
|--12-------------------------|--15------------14------13------|
|-----------------------------|--------------------------------|
|-----------------------------|--------------------------------|
|-----------------------------|--------------------------------|

  Gtr. II
|--------------------------------|-----------------------------|
|--------------------------------|-----------------------------|
|--------------------------------|-----------------------------|
|--------------------------------|-----------------------------|
|--------------------------------|-----------------------------|
|--0-0-0-3-3-3-5-5-6-------5---3-|--0-0-0-3-3-3-5-5-6-----5-3--|
| Gtr. I
|-12-----------------------10/11-|-12--------------------------|
|-12-----------------------10/11-|-12--------------------------|
|-12-----------------------10/11-|-12--------------------------|
|--------------------------------|-----------------------------|
|--------------------------------|-----------------------------|
|--------------------------------|-----------------------------|
| Bass
|--------------------------------|-----------------------------|
|--------------------------------|-----------------------------|
|--------------------------------|-----------------------------|
|--0-0-0-3-3-3-5-5-6-------5---3-|--0-0-0-3-3-3-5-5-6-----5-3--|

  Gtr. II
|---------------------------|-------------------------|
|---------------------------|-------------------------|
|---------------------------|-------------------------|
|---------------------------|-------------------------|
|--0-0-0-3-3-3--5-5-6--5--3-|-------------------------|
|---------------------------|--0-0-0-3-3-3-5-5-6--5-3-|
| Gtr. I                    |                         |
|-17-----------15--------13-|-12----------------------|
|-17-----------15--------13-|-12----------------------|
|-17-----------15--------13-|-12----------------------|
|---------------------------|-------------------------|
|---------------------------|-------------------------|
|---------------------------|-------------------------|
| Bass                      |                         |
|---------------------------|-------------------------|
|---------------------------|-------------------------|
|--0-0-0-3-3-3--5-5-6--5--3-|-------------------------|
|---------------------------|--0-0-0-3-3-3-5-5-6--5-3-|


[G] Guitar Solo B

  Gtr. II
|-------------------------|-----------------------------|
|---8-8--8-8----5-5--5-5--|---7-7--7-7------------------|
|---7-7--7-7----5-5--5-5--|---7-7--7-7------------2-4-5-|
|-------------------------|-----------------2-4-5-------|
|-------------------------|-------------3-5-------------|
|-------------------------|-----------------------------|
| Gtr. I                  |                             |
|-------------------------|-----------------------------|
|-------------------------|-------------------------3-5-|
|-------------------------|----------2--------2-4-5-----|
|-----------------2----5--|-----4-------2-4-5-----------|
|-----2----5--3-----------|-5---------------------------|
|-3-----------------------|-----------------------------|
| Bass                    |                             |
|-------------------------|----------2------------------|
|-----------------2----5--|-----4-------------------2---|
|-----2----5--3-----------|-5-----------3-----5---------|
|-3-----------------------|-----------------------------|

  Gtr. II
|---------------------------|------------------------------|
|-3--3-3--3---3-------------|------------------------------|
|----------------5-5--4---2-|-4--2-2-----------------------|
|---------------------------|--------5---4-----------------|
|---------------------------|------------------------------|
|---------------------------|------------------------------|
|  Gtr. I                   |                              |
|-3--3-3--3---3-------------|------------------------------|
|----------------5-5--3---4-|-5--3-3-----------------------|
|---------------------------|--------5---4-----------------|
|---------------------------|------------------------------|
|---------------------------|-----------------2-3-2-0------|
|---------------------------|-------------------------3-2--|
| Bass                      |                              |
|---------------------------|----------2-------------------|
|------------------2----5---|------4-----------------------|
|------2----5--3------------|-5----------3-----------------|
|-3-------------------------|------------------------------|

  Gtr. II
|-------------------------|----------------------------------|
|-------------------------|----------------------------------|
|-------------------------|-6---------------4----------------|
|-------------------------|-7---------------5----------------|
|-------------------------|-7---------------5----------------|
|--0-0-0-3-3-3-5-5-6--5-3-|-5---5-5---5-5---3---3-3---3-3----|
| Gtr. I                  |                                  |
|-------------------------|----------------------------------|
|-------------------------|----------------------------------|
|-------------------------|-6---------------4----------------|  X2
|-------------------------|-7---------------5----------------|
|-------------------------|-7---------------5----------------|
|--0-0-0-3-3-3-5-5-6--5-3-|-5---------------3----------------|
| Bass                    |                                  |
|-------------------------|----------------------------------|
|-------------------------|----------------------------------|
|-------------------------|----------------------------------|
|-------------------------|-5---5-5---5-5---3---3-3---3-3----|

  Gtr. II
|--0--0--0--3--3--3--5--5--6---5--3-|
|-----------------------------------|
|-----------------------------------|
|-----------------------------------|
|-----------------------------------|
|-----------------------------------|
| Gtr. I                            |
|----------10-10-10-12-12-13--12-10-|
|-12-12-12--------------------------|
|-----------------------------------|
|-----------------------------------|
|-----------------------------------|
|-----------------------------------|
| Bass                              |                  
|-----------------------------------|
|-----------------------------------|
|-----------------------------------|
|--0--------------------------------|

  Gtr. II
|----------------------------------|
|----------------------------------|
|-6---------------4----------------|
|-7---------------5----------------|
|-7---------------5----------------|
|-5---5-5---5-5---3---3-3---3-3----|
| Gtr. I                           |         
|----------------------------------|
|----------------------------------|
|-6---------------4----------------|
|-7---------------5----------------|
|-7---------------5----------------|
|-5---------------3----------------|
| Bass                             |
|----------------------------------|
|----------------------------------|
|----------------------------------|
|-5---5-5---5-5---3---3-3---3-3----|

  Gtr. II
|----------------------------------|
|----------------------------------|
|-6---------------8----------------|
|-7---------------9----------------|
|-7---------------9----------------|
|-5---5-5---5-5---7---7-7---7-7----|
| Gtr. I                           |         
|----------------------------------|
|----------------------------------|
|-6---------------8----------------|
|-7---------------9----------------|
|-7---------------9----------------|
|-5---------------7----------------|
| Bass                             |
|----------------------------------|
|----------------------------------|
|----------------------------------|
|-5---5-5---5-5---7---7-7---7-7----|

  Gtr. II
|----------------------------------|
|----------------------------------|
|--9---------------11--------------|
|-10---------------12--------------|
|-10---------------12--------------|
|--8---8-8---8-8---10---10-10------|
| Gtr. I                           |         
|----------------------------------|
|----------------------------------|
|--9---------------11--------------|
|-10---------------12--------------|
|-10---------------12--------------|
|--8---------------10--------------|
| Bass                             |
|----------------------------------|
|----------------------------------|
|----------------------------------|
|--8---8-8---8-8---10---10-10------|

[H] Outro

  Gtr. II
|---------------------------------|-------------------------|
|-0-0-3-5-6-6-5-3-0-0-3-5-6-6-5-3-|-0-0-3-5-6-6-5-3-0-3-5-6-|
|---------------------------------|-------------------------|
|---------------------------------|-------------------------|
|---------------------------------|-------------------------|
|---------------------------------|-------------------------|
| Gtr. I                          |                         |
|-----3-5-6-6-5-3-----3-5-6-6-5-3-|-----3-5-6-6-5-3---3-5-6-|
|-5-5-------------5-5-------------|-5-5-------------5-------|
|---------------------------------|-------------------------|
|---------------------------------|-------------------------|
|---------------------------------|-------------------------|
|---------------------------------|-------------------------|
| Bass                            |                         |
|---------------------------------|-------------------------|
|---------------------------------|-------------------------|
|-------0-1---0---------0-1---0---|-------0-1---0-------0-1-|
|-0---3---------3-0---3---------3-|-0---3---------3-0-3-----|

 Freetime
 
  Gtr. II
|-------------------------------|-----------|
|---6-6-6-6-6-6-6-6-6-6-6-6-6-6-|-(6)\------|
|-------------------------------|-----------|
|-------------------------------|-----------|
|-------------------------------|-----------|
|-------------------------------|-----------|
| Gtr. I                        |           |
|---6-6-6-6-6-6-6-6-6-6-6-6-6-6-|-(6)\------|
|-------------------------------|-----------|
|-------------------------------|-----------|
|-------------------------------|-----------|
|-------------------------------|-----------|
|-------------------------------|-----------|
| Bass                          |           |
|-------------------------------|-----------|
|-------------------------------|-----------|
|---1-1-1-1-1-1-1-1-1-1-1-1-1-1-|-(1)\------|
|-------------------------------|-----------|

            
            
Suggest correction
Creating personal tab
Creating personal tab
You can edit any tab online and save it as your Personal.

You can edit, replace or remove any tab part or add personal notes – all changes will be seen only by you.

Personal tabs can be accessed anytime from any device, even offline.
Learn more »
comments
print report bad tab
1 comment total.
+1 reply
maxshredmaster 10 Mar 10, 2009 10:57 AM

dude the lead is way off when i played this 2*

guest
Wanna post a correction for this tab? Suggest correction