Oops, an error
Loading. Please wait.

Little Toy Gun Tab

version 1
version 1

Whole song

2,154 views 1 this week
1 commentread comment
1 2 3 4 5
please rate
add to favorites
launch autoscroll
font size
0
reset
how to read this tab
guitar tuner
Tab Pro tools
  • play this tab
  • loop segment
  • change instrument
  • show fretboard
  • metronome
×
Best way to learn
"Little Toy Gun"
Autoscroll
slow
fast
+/-
esc
set tempo
stop
Difficulty
Capo
novice
2nd fret
-------------------------------------------------------------------------------
                             Little Toy Gun - honeyhoney
-------------------------------------------------------------------------------
Tabbed by: Po0r Len0
Email:
(first tab. Pardon the possible confusion)


Tuning: Standard (Capo 2nd fret)

Intro

Quiet Am, then

e|--------------|
B|--------------|
G|--------------|
D|---0h2p0------|
A|--------3p2-0-|
E|--------------|

Verse

Basic Strumming Pattern: Down, click, up, up, down, up

                                               Repeat last 4 chords louder
e|---0---1-------0---------------0---1-------0-------------------------------|
B|---1---3---0---1---------------1---3---0---1-------------------------------|
G|---2---2---1---2---------------2---2---1---2-------------------------------|
D|---2---0---0---2---0h2p0-------2---0---0---2-------------------------------|
A|---0-------2---0--------3p20---0-------2---0-------------------------------|
E|-----------3---------------------------3-----------------------------------|

                …little toy gun
e|---0---1-----------------------x---x---|
B|---1---3---000-----------------x---x---|
G|---2---2---111-----------------x---x---|
D|---2---0---000-----------------x---x---|
A|---0-------222-----------------x---x---|
E|-----------333-----------------x---x---|

   Repeat the 4 chords twice.   (throwing in your pinky on high e during the 
second Am sounds good)
e|-------------------------|          |---0x30x00---|
B|-------------------------|          |---1x11x11---|
G|-------------------------|        ( |---2x22x22---| )
D|-------------------------|          |---2x22x22---|
A|-------------------------|          |---0x00x00---|
E|-------------------------|          |-------------|

[stout upstroke to start 3rd chord]
                                                          little toy gun
e|---0---1-------0----------------------------0---1--------------------------|
B|---1---3---0---1----------------------------1---3---000--------------------|
G|---2---2---1---2----------------------------2---2---111--------------------|
D|---2---0---0---2---0h2p0--------------------2---0---000--------------------|
A|---0-------2---0--------3p2-0---------------0-------222--------------------|
E|-----------3----------------------------------------333--------------------|

Chorus
   Rapid clicks    [play twice]
e|---x--------------1---0-------0---------------------------------|
B|---x--------------3---1---0---1---------------------------------|
G|---x--------------2---2---1---2---------------------------------|
D|---x--------------0---2---0---2---------------------------------|
A|---x------------------0---2---0---------------------------------|
E|---x----------------------3-------------------------------------|



e|---------------------------------------------------------------------------|
B|---------------------------------------------------------------------------|
G|-------------------------1----------------------------------------2-1~-----|
D|----------------2h3-3-3-32-2-0---0h20---------------------2h3-3-3----------|
A|----0-0-0-0-2-3-0--------------3-----320------0-0-0-0-2-3-0----------------|
E|--0---0-0-0-----------------------------310-0---0-0-0----------------------|

                    [verse strum pattern w/o click)
e|-------------------3---2---1---0----------------------------12+------------|
B|-------------------1---1---1---1----------------------------12+------------|
G|-------------------2---2---2---2----------------------------12+------------|
D|---3p2p0---20------2---2---2---2----------------------------12+------------|
A|--------320--230---0---0---0---0--4-------------------------12+------------|
E|-----------------0------------------------------------------12+------------|

    Quiet part. Play chords in verse sequence then   [louder]
e|---------------------------------------------------0---7-------------------|
B|---------------------------------------------------1---8---000-------------|
G|---------------------------------------------------2---9---111-------------|
D|---------------------------------------------------2---9---000-------------|
A|---------------------------------------------------0---7---222-------------|
E|-------------------------------------------------------7---333-------------|


End Chorus

[Rapid mutes][Down, mute, up, up, down, up]  faster strumming pattern
e|--------------1---0-------0---1---0-------|---0--1--0-------------------------|
B|--------------3---1---0---1---3---1---0---|---1--3--1--1---11111111111111-----|
G|--------------2---2---1---2---2---2---1---|---2--2--2--0---00000000000000-----|
D|--------------0---2---0---2---0---2---0---|---2--0--2--0---00000000000000-----|
A|------------------0---2---0-------0---2---|---0-----0--2---00022233300000-----|
E|----------------------3---------------3---|-----------------------------------|


e|---1---0--------0xx000------------------------------------------------------|
B|---3---1---0----1xx111------------------------------------------------------|
G|---2---2---1----2xx222------------------------------------------------------|
D|---0---2---0----2xx222------------------------------------------------------|
A|-------0---2----0xx000------------------------------------------------------|
E|-----------3----------------------------------------------------------------|

=]

Throw triplets in the strumming for flavor

| /  slide up
| \  slide down
| h  hammer-on
| p  pull-off
| ~  vibrato
| +  harmonic
| x  Mute note
===============================================================================
comments
We did not receive enough feedback on this tab! Please rate:
print report bad tab
1 2 3 4 5
1 comment total.
0 reply
Po0r Len0 wrote on August 25 2009, 11:26 am

Sorry! that 4 after the chords following the solo should be a 3.

I want to post or [tab]
guest
You may want to rate the tab now too:
select rating
Please do not post tabs as comments. Select "correction" instead!