Oops, an error
Loading. Please wait.

Goodnight My Love tab

2,231 views 1 this week
1 commentread comment
1 2 3 4 5
2 more votes to show rating
add to favorites
×
Save as Personal and add changes to this tab that will be seen only by you. Learn more ›
×
You can save this tab as Personal to edit and correct it or add notes. All changes will be seen only by you. Learn more »
launch autoscroll
font size
0
reset
how to read this tab
guitar tuner
edit
Autoscroll
slow
fast
+/-
esc
set tempo
stop
Author
Difficulty
Standard Tuning

Intro:

e|-----------------------0---3-1-0--------------|
B|----1--1------3--1------1-1-----3-1-----------|
G|---2-2-------0-0------0--0--------------------| 2x
D|--3---3-----0---0----2------------------------|
A|-0---------2--------3-------------------------|
E|----------------------------------------------|

Verse:

e|-----------------------0---3-1-0--------------|
B|----1--1------3--1------1-1-----3-1-----------|
G|---2-2-------0-0------0--0--------------------|
D|--3---3-----0---0----2------------------------|
A|-0---------2--------3-------------------------|
E|----------------------------------------------|

e|----------------------------------------------|
B|----1--1------3--1-----1--1--1----------------|
G|---2-2-------0-0------0-0--0------------------|
D|--3---3-----0---0----2---2--2-----------------|
A|-0---------2--------3-------------------------|
E|----------------------------------------------|

e|-----------------------0---3-1-0--------------|
B|----1--1------3--1------1-1-----3-1-----------|
G|---2-2-------0-0------0--0--------------------|
D|--3---3-----0---0----2------------------------|
A|-0---------2--------3-------------------------|
E|----------------------------------------------|

e|----------------------------------------------|
B|----1--1------3--1----------------------------|
G|---2-2-------0-0------------------------------|
D|--3---3-----0---0-----------------------------|
A|-0---------2----------------------------------|
E|----------------------------------------------|

Pre:

e|---------------------------------------------3-1-0-----------|
B|-----1------3-----------1-----1------3------1-----3-1--------|
G|-----------0-----------2------------0------0-----------------|
D|----3-------------2---2------3------------2------------------|
A|---3------2------2---0------3------2-----3-------------------|
E|--1------3------0----------1------3--------------------------|

e|-------------------------------1---1-------------------------|
B|-----1------3-----------1-----3-3--3-------------------------|
G|-----------0-----------2-----3---3-3-------------------------|
D|----3-------------2---2-----3------3-------------------------|
A|---3------2------2---0-----1-------1-------------------------|
E|--1------3------0--------------------------------------------|

Chorus:

e|----1--1-------------0---3-1-0-----------------------------|
B|---3-3-------3--------1-1-----3-1--------------------------|
G|--2---2-------0-----0--0-----------------------------------|
D|-0----------0------2---------------------------------------|
A|-----------2------3----------------------------------------|
E|----------3------------------------------------------------|

e|----1--1---------------------------------------------------|
B|---3-3-------3-------1--1--1--1----------------------------|
G|--2---2-------0-----2-2--2--2------------------------------|
D|-0----------0------2---3--3--3-----------------------------|
A|-----------2------0----------------------------------------|
E|----------3------------------------------------------------|

e|----1--1---------------------------------------------------|
B|---3-3-------3-------1----3-----1--------------------------|
G|--2---2-------0-----2------------2-------------------------|
D|-0----------0------2-----0-----3---------------------------|
A|-----------2------0-----2-----3----------------------------|
E|----------3------------3-----1-----------------------------|

e|----1------------------------------------------------------|
B|---3-3-----3------1--1-------------------------------------|
G|--2---2-----0-----2--0-------------------------------------|
D|-0--------0-------3--2-------------------------------------|
A|---------2-------3---3-------------------------------------|
E|--------3-------1------------------------------------------|

Post Chorus:

e|-----------------------0---3-1-0--------------|
B|----1--1------3--1------1-1-----3-1-----------|
G|---2-2-------0-0------0--0--------------------| 
D|--3---3-----0---0----2------------------------|
A|-0---------2--------3-------------------------|
E|----------------------------------------------|

Verse:

e|-----------------------0---3-1-0--------------|
B|----1--1------3--1------1-1-----3-1-----------|
G|---2-2-------0-0------0--0--------------------|
D|--3---3-----0---0----2------------------------|
A|-0---------2--------3-------------------------|
E|----------------------------------------------|

e|----------------------------------------------|
B|----1--1------3--1-----1--1--1----------------|
G|---2-2-------0-0------0-0--0------------------|
D|--3---3-----0---0----2---2--2-----------------|
A|-0---------2--------3-------------------------|
E|----------------------------------------------|

e|-----------------------0---3-1-0--------------|
B|----1--1------3--1------1-1-----3-1-----------|
G|---2-2-------0-0------0--0--------------------|
D|--3---3-----0---0----2------------------------|
A|-0---------2--------3-------------------------|
E|----------------------------------------------|

e|----------------------------------------------|
B|----1--1------3--1----------------------------|
G|---2-2-------0-0------------------------------|
D|--3---3-----0---0-----------------------------|
A|-0---------2----------------------------------|
E|----------------------------------------------|

Pre:

e|---------------------------------------------3-1-0-----------|
B|-----1------3-----------1-----1------3------1-----3-1--------|
G|-----------0-----------2------------0------0-----------------|
D|----3-------------2---2------3------------2------------------|
A|---3------2------2---0------3------2-----3-------------------|
E|--1------3------0----------1------3--------------------------|

e|-------------------------------1---1-------------------------|
B|-----1------3-----------1-----3-3--3-------------------------|
G|-----------0-----------2-----3---3-3-------------------------|
D|----3-------------2---2-----3------3-------------------------|
A|---3------2------2---0-----1-------1-------------------------|
E|--1------3------0--------------------------------------------|

Chorus:

e|----1--1-------------0---3-1-0-----------------------------|
B|---3-3-------3--------1-1-----3-1--------------------------|
G|--2---2-------0-----0--0-----------------------------------|
D|-0----------0------2---------------------------------------|
A|-----------2------3----------------------------------------|
E|----------3------------------------------------------------|

e|----1--1---------------------------------------------------|
B|---3-3-------3-------1--1--1--1----------------------------|
G|--2---2-------0-----2-2--2--2------------------------------|
D|-0----------0------2---3--3--3-----------------------------|
A|-----------2------0----------------------------------------|
E|----------3------------------------------------------------|

e|----1--1---------------------------------------------------|
B|---3-3-------3-------1----3-----1--------------------------|
G|--2---2-------0-----2------------2-------------------------|
D|-0----------0------2-----0-----3---------------------------|
A|-----------2------0-----2-----3----------------------------|
E|----------3------------3-----1-----------------------------|

e|----1------------------------------------------------------|
B|---3-3-----3------1--1-------------------------------------|
G|--2---2-----0-----2--0-------------------------------------|
D|-0--------0-------3--2-------------------------------------|
A|---------2-------3---3-------------------------------------|
E|--------3-------1------------------------------------------|


Post Chorus:

e|-----------------------0---3-1-0--------------|
B|----1--1------3--1------1-1-----3-1-----------|
G|---2-2-------0-0------0--0--------------------| 
D|--3---3-----0---0----2------------------------|
A|-0---------2--------3-------------------------|
E|----------------------------------------------|

Bridge:

e|-----2------2-------2--------------------------------------|
B|----3-3----3-3-------3-------------------------------------|
G|---2------2--------4------2--------------------------------|
D|--0---------------4------2---------------------------------|
A|---------4-------2------0----2--4--------------------------|
E|-----------------------------------------------------------|

e|-----2------2-------2--------------------------------------|
B|----3-3----3-3-------3-----2---3---3--2--------------------|
G|---2------2--------4------2----0---2--2--------------------|
D|--0---------------4------2-----0---2--2--------------------|
A|---------4-------2------0---2--2---0--0--------------------|
E|-------------------------------3---------------------------|

Strum

e|-2----2----2----0----3---0---------------------------------|
B|-3----3----3----2----3---2---------------------------------|
G|-2----2----4----2----0---2---------------------------------|
D|-0----0----4----2----0---2---------------------------------|
A|------4----2----0----2---0---------------------------------|
E|---------------------3-------------------------------------|

Chorus:

e|--0---0---2----0----0----2-----0----0---2-0-3----0---0---2---|
B|--0---2---3----0----2----3-----0----2---3-2-3----0---2---3---|
G|--0---2---2----0----2----4-----0----2---4-2-0----0---2---2---|
D|--2---2---0----2----2----4-----2----2---4-2-0----2---2---0---|
A|--2---0--------2----0----2-----2----0---2-0-2----2---0-------|
E|--0------------0---------------0------------3----0-----------|

Hope you liked it!

            
            
Suggest correction
Creating personal tab
Creating personal tab
You can edit any tab online and save it as your Personal.

You can edit, replace or remove any tab part or add personal notes – all changes will be seen only by you.

Personal tabs can be accessed anytime from any device, even offline.
Learn more »
Give kudos to tab author, rate the tab!
1 2 3 4 5
comments
print report bad tab
1 comment total.
0 reply
horses-4-life14 41 Oct 17, 2010 10:46 AM

Perfect *****

guest
You may want to rate the tab now too:
select rating
Wanna post a correction for this tab? Suggest correction