Oops, an error
Loading. Please wait.

See U In The Dark tab

version 1
version 1

Whole song

3,571 views 1 this week
3 commentsread comments
1 2 3 4 5
x 3
add to favorites
×
Save as Personal and add changes to this tab that will be seen only by you. Learn more ›
×
You can save this tab as Personal to edit and correct it or add notes. All changes will be seen only by you. Learn more »
launch autoscroll
font size
0
reset
how to read this tab
guitar tuner
edit
Autoscroll
slow
fast
+/-
esc
set tempo
stop
Author
Difficulty
*SEE U IN THE DARK*
        by: Honor Society

So.... I realized there were no tabs for Honor Society or this song so was like, "That's
damned shame!" haha.. so i tabbed 'See U in the Dark' ( the song that attracted so many
their new fans. Yeah... this is my first tab so please don’t criticize any mistakes. I 
the chords from the 'Making of A Tale Of Risky Business' video so i don’t know if they
the chords or somethinggg..so bear with me.

ALSO. im not sure about the solo so if you know feel free to add it as a comment or something.


VERSES: (staccato)               (strumming)
E|--------------------|     |--------------------|    |------|
B|--------------------|     |--------------------|    |------|
G|-9------------------|     |-9------------------|    |------|
D|-9-x8--10-----9-----| x2  |-9-x8--10-----9-----| x2 |--12--|
A|-7-----10-x4--9-x4--|     |-7-----10-x4--9-x4--|    |--12--|
E|--------8-----7-----|     |--------8-----7-----|    |--10--|


CHORUS:
E|---------------------------------|
B|---------------------------------|
B|--------5------------5-----5-----|
D|--5-----5-x8--2------5-x5--5-x5--| x2
A|--5-x8--3-----2-x8---3-----3-----|
E|--3-----------0------------------|

 POST CHORUS:   (im kind of iffy with this part but it sounds okay)
E|-------------------------------------------------------------------------|
B|-------------------------------------------------------------------------|
G|--77--10 10--99-----------77--10 10--99------77--10 10--99---------------|
D|-----------------10 10-------------------77-----------------10 10--------|
A|-------------------------------------------------------------------------|
E|-------------------------------------------------------------------------|

E|-----------------------------------------------------------------|
B|-------------------------------------------88--66----------------|
G|--77--10 10--99------77--10 10--99-----------------9-------------|
D|-----------------77-----------------10 10-------------10-12------|
A|-----------------------------------------------------------------|
E|-----------------------------------------------------------------|


i hope it isn’t too confusing for you... i did my best with this and spent a lot of time
this.

enjoy! :)

            
            
Suggest correction
Creating personal tab
Creating personal tab
You can edit any tab online and save it as your Personal.

You can edit, replace or remove any tab part or add personal notes – all changes will be seen only by you.

Personal tabs can be accessed anytime from any device, even offline.
Learn more »
Give kudos to tab author, rate the tab!
1 2 3 4 5
comments
print report bad tab
3 comments total.
0 reply
phantomm08 10 Aug 05, 2009 01:14 PM

thats not how they play it idk the exact chords for the rest but it deff starts with an e minor and the chorus is g c eminor

0 reply
fobalicious 10 Aug 16, 2009 06:59 PM

sounds really good and just play it as an acoustic version because it doesnt have a solo

0 reply
Tizrulingzworld 30 Aug 20, 2009 07:14 PM

phantomm08 x799x is the equivalent of an e minor. if u follow the chords u just stated then this is correct this tab just happens to be in powerchord form instead of regular chords. great tab

guest
You may want to rate the tab now too:
select rating
Wanna post a correction for this tab? Suggest correction