Oops, an error
Loading. Please wait.

Born To Lead Bass

version 1
version 1

Whole song

Interactive

1,459 views 3 this week
no commentswrite comment
1 2 3 4 5
2 more votes to show rating
add to favorites
launch autoscroll
font size
0
reset
guitar tuner
×
Best way to learn
"Born To Lead"
Autoscroll
slow
fast
+/-
esc
set tempo
stop
Author
Tuning
  follow
D A D G

[G]
[D]
[A]				Born To Lead
[D]				Hoobastank

VERSE
G------------------------|\
D------------------------| \
A------------------------| / 2 Times 
D-0--0--3--0--0--0--1--0-|/

CHORUS

G-----|-----|-----|------|\
D-----|-----|-----|------| \
A-----|--3--|-----|------| / 2 Times
D--0--|-----|--5--|---1--|/ 
 
VERSE

G------------------------|\
D------------------------| \
A------------------------| / 2 Times 
D-0--0--3--0--0--0--1--0-|/

CHORUS
G-----|-----|-----|------|\
D-----|-----|-----|------| \
A-----|--3--|-----|------| / 2 Times
D--0--|-----|--5--|---1--|/ 

Intense Part

G------------------------|\
D------------------------| \
A------------------------| / 4 Times
D-30--3560---------------|/

BRIDGE

G------------------------|
D------------------------|
A------------------------|
D-55555555-66666666------|

G------------------------|
D------------------------|
A------------------------|
E-88888888-66666666------|

G------------------------|
D------------------------|
A------------------------|
D-55555555-66666666------|

G------------------------|
D------------------------|
A------------------------|
D-88888888-99999999------|

VERSE

G------------------------|\
D------------------------| \
A------------------------| / 2 Times 
D-0--0--3--0--0--0--1--0-|/

END CHORUS

G-----|-----|-----|------|\
D-----|-----|-----|------| \
A-----|--3--|-----|------| / 4 Times
D--0--|-----|--5--|---1--|/

Suggest correction
Give kudos to tab author, rate the tab!
1 2 3 4 5
comments
print report bad tab
guest
You may want to rate the tab now too:
select rating
Wanna post a correction for this tab? Suggest correction