Oops, an error
Loading. Please wait.

Can I Buy You A Drink Bass Tab

447 views 1 this week
no commentswrite comment
1 2 3 4 5
3 more votes to show rating
add to favorites
launch autoscroll
font size
0
reset
guitar tuner
Autoscroll
slow
fast
+/-
esc
set tempo
stop
Help us to improve Ultimate-Guitar.com Take our survey!
×
Can I buy you a drink by hoobastank
Standard Tuning

(Intro)
G|--------|--------|
D|--Rest--|--------|
A|--for-7-|----12\-|
E|measures|--------|
B|--------|--------|
							
G|----5---|--------|--------|--------|--------|--------|--------|--------|
D|--5---5-|686-5---|------3-|5-3-1-0-|331-0---|110-----|--------|----1---|
A|3-------|--------|--2-5---|--------|------3-|----3-0-|----1---|1-------|
E|--------|--------|3-------|--------|--------|--------|3-----3-|--------|
B|--------|--------|--------|--------|--------|--------|--------|--------|

G|--------|--------|
D|--------|--------|
A|--------|--------|
E|--------|--------|
B|--------|--------|

(verse 1 + 2)
G|--------|--------|--------|--------|--------|--------|--------|--------|
D|--------|--------|--------|--------|3-------|--------|3-3-----|--------|
A|------1-|------1-|------1-|----1-3-|----3---|--------|----3-3-|--------|
E|--3-----|--3-----|--3-----|--3-----|--------|4---1---|--------|4-4-1-1-|
B|1-------|1-------|1-------|1-------|--------|--------|--------|--------|

G|--------|--------|--------|--------|--------|--------|--------|--------|
D|--------|--------|--------|--------|--------|--------|--------|--------|
A|--------|--------|--------|--------|------1-|------1-|------1-|----1-3-|
E|--------|--------|--------|--------|--3-----|--3-----|--3-----|--3-----|
B|3-3-3-3-|3-3-3-3-|2-2-2-2-|2-2-2-2-|1-------|1-------|1-------|1-------|

G|--------|--------|--------|--------|--------|--------|--------|--------|
D|--------|--------|--------|--------|3-------|--------|3-3-----|--------|
A|------1-|------1-|------1-|----1-3-|----3---|--------|----3-3-|--------|
E|--3-----|--3-----|--3-----|--3-----|--------|4---1---|--------|4-4-1-1-|
B|1-------|1-------|1-------|1-------|--------|--------|--------|--------|

G|--------|--------|--------|--------|
D|--------|--------|--------|--------|
A|--------|--------|--------|--------|
E|--------|--------|--------|--------|
B|3-3-3-3-|3-3-3-3-|2-2-2-2-|2-2-2-2-|

(Chorus) x2
G|----5---|--------|--------|--------|--------|--------|--------|--------|
D|--5---5-|686-5---|------3-|5-3-1-0-|331-0---|110-----|--------|----1---|
A|3-------|--------|--2-5---|--------|------3-|----3-0-|----1---|1-------|
E|--------|--------|3-------|--------|--------|--------|3-----3-|--------|
B|--------|--------|--------|--------|--------|--------|--------|--------|

G|--------|--------|
D|--------|--------|
A|--------|--------|
E|--------|--------|
B|--------|--------|

(verses 3 + 4)
G|--------|--------|--------|-------|--------|--------|--------|--------|
D|--------|--------|--------|-------|3-------|--------|3-3-----|--------|
A|------1-|------1-|------1-|----1-3|----3---|--------|----3-3-|--------|
E|--3-----|--3-----|--3-----|--3----|--------|4---1---|--------|4-4-1-1-|
B|1-------|1-------|1-------|1------|--------|--------|--------|--------|

G|--------|--------|--------|-------|--------|--------|--------|--------|
D|--------|--------|--------|-------|--------|--------|--------|--------|
A|--------|--------|--------|-------|------1-|------1-|------1-|----1-3-|
E|--------|--------|--------|-------|--3-----|--3-----|--3-----|--3-----|
B|3-3-3-3-|3-3-3-3-|2-2-2-2-|2-2-2-2|1-------|1-------|1-------|1-------|

G|--------|--------|--------|-------|--------|--------|--------|--------|
D|--------|--------|--------|-------|3-------|--------|3-3-----|--------|
A|------1-|------1-|------1-|----1-3|----3---|--------|----3-3-|--------|
E|--3-----|--3-----|--3-----|--3----|--------|4---1---|--------|4-4-1-1-|
B|1-------|1-------|1-------|1------|--------|--------|--------|--------|

G|--------|--------|--------|-------|
D|--------|--------|--------|-------|
A|--------|--------|--------|-------|
E|--------|--------|--------|-------|
B|3-3-3-3-|3-3-3-3-|2-2-2-2-|2-2-2-2|

(Bridge)
G|--------|--------|--------|--------|
D|----0---|1-------|--------|--------|  x4
A|3-------|----2---|--------|--------|
E|--------|--------|1-1-3-3-|4-3-0---|
B|--------|--------|--------|--------|

G|--------|--------|--------|--------|
D|--------|--------|--------|--------|  x4
A|--------|--------|--------|--------|
E|--------|--------|1-1-3-3-|4-3-0---|
B|1---3---|4---0---|--------|--------|

G|--------|--------|
D|--Rest--|--------|
A|-for--7-|---3/12\|
E|measures|--------|
B|--------|--------|

(Outro) repeat until fade out         
G|----5---|--------|--------|--------|--------|--------|--------|--------|
D|--5---5-|686-5---|------3-|5-3-1-0-|331-0---|110-----|--------|----1---|
A|3-------|--------|--2-5---|--------|------3-|----3-0-|---1----|1-------|
E|--------|--------|3-------|--------|--------|--------|3-----3-|--------|
B|--------|--------|--------|--------|--------|--------|--------|--------|

Thanks, please rate it after you learn it.
_TheBassist01_
Suggest correction
Give kudos to tab author, rate the tab!
1 2 3 4 5
comments
print report bad tab
guest
You may want to rate the tab now too:
select rating
Wanna post a correction for this tab? Suggest correction