Oops, an error
Loading. Please wait.

First Of Me tab

version 1
version 1

Whole song

Interactive

12,883 views 6 this week
5 commentsread comments
1 2 3 4 5
x 10
add to favorites
×
Save as Personal and add changes to this tab that will be seen only by you. Learn more ›
×
You can save this tab as Personal to edit and correct it or add notes. All changes will be seen only by you. Learn more »
launch autoscroll
font size
0
reset
how to read this tab
guitar tuner
edit
Autoscroll
slow
fast
+/-
esc
set tempo
stop
Author
Artist: Hoobastank
Song: First Of Me 
Album: Every Man For Himself
Tuning: Standard

PRE-CHORUS: (Palm muted)
e|--------------------------------------|
B|--------------------------------------|
G|--------------------------------------|
D|-7777777---77777777777777---6666666---|
A|-5555555-0-44444444444444-0-4444444-0-|
E|--------------------------------------|

Keep on repeating that until: (Palm muted still)
e|------------------------------------|
B|------------------------------------|
G|------------------------------------|
D|-4444444444444444-77777777-99999999-| 
A|-2222222222222222-55555555-77777777-|
E|------------------------------------|

e|------------------|
B|------------------|
G|------------------|
D|-444444444444-222-| (x2)
A|-444444444444-222-|
E|-222222222222-000-|

CHORUS:
e|---------------------|
B|----------------5----|
G|----------------6--7-|
D|-4----7----2----6--7-|
A|-4----7----2----4--5-|
E|-2----5----0---------|

Sometime at the end of the song, this is played along with the chorus:
e|-9--7-----------7-|
B|-------10--9-10---|
G|------------------|
D|------------------|
A|------------------|
E|------------------|

OUTRO:
e|-4-4-5-4---|
B|---------5-|
G|-----------| (x2)
D|-----------|
A|-----------|
E|-----------|

e|-4-4-5-4-----------4-4-|
B|---------7--6-6--7-----|
G|-----------------------| 
D|-----------------------|
A|-----------------------|
E|-----------------------|

And thats it.

Feel free to comment or rate.
Suggest correction
Creating personal tab
Creating personal tab
You can edit any tab online and save it as your Personal.

You can edit, replace or remove any tab part or add personal notes – all changes will be seen only by you.

Personal tabs can be accessed anytime from any device, even offline.
Learn more »
comments
print report bad tab
5 comments total. Showing first comments.
0 reply
NickClemett 83 Jul 03, 2006 07:59 AM

Excellent job...Again. Official Hoobastank Tabber here,
Although I believe he is playing more strings on the intro/Verses.

|-------------------------------------------------------------------
|-------------------------------------------------------------------
|--7-7-7-7-7-7-7-7---6-6-6-6-6-6-6-6-6-6-6-6-6-6-6-6---6-6-6-6-6-6-6
|--7-7-7-7-7-7-7-7---7-7-7-7-7-7-7-7-7-7-7-7-7-7-7-7---6-6-6-6-6-6-6
|--5-5-5-5-5-5-5-5-0-4-4-4-4-4-4-4-4-4-4-4-4-4-4-4-4-0-4-4-4-4-4-4-4
|-------------------------------------------------------------------
I could be wrong but thats what I hear. Good work. Great Tab
Check out my version of Finally Awake, any comments on that. worked from ear also.

0 reply
Kigai 78 Mar 21, 2007 07:14 AM

Great job on tab, it's hard to tell whether that's 2 strings or 3. I personally think that it may just be a trick of the ear, but i guess only hoobastank knows

0 reply
bandnerdB2 10 Jun 11, 2007 05:53 PM

excellent tab, it all lines up with thr song and sounds right.
great job!

guest
You may want to rate the tab now too:
select rating
Wanna post a correction for this tab? Suggest correction