Oops, an error
Loading. Please wait.

From The Heart Tab

version 3
version 3

Whole song

Interactive

3,133 views 3 this week
no commentswrite comment
1 2 3 4 5
x 5
add to favorites
launch autoscroll
font size
0
reset
how to read this tab
guitar tuner
Autoscroll
slow
fast
+/-
esc
set tempo
stop
Help us to improve Ultimate-Guitar.com Take our survey!
×
-------------------------------------------------------------------------------
                             FROM THE HEART - Hoobastank
-------------------------------------------------------------------------------
Tabbed by: Alex R

Tuning: Db Ab Db Gb Bb eb

Intro/Verse
eb|-------------------------------------------------|
Bb|-------------------------------------------------|
Gb|-------------------------------------------------|
Db|-----5---5-7-----7---7-8-----8---8-7-----3---3-5-|
Ab|-------------------------------------------------|
Db|-5-5---5-----5-5---5-----8-8---8-----3-3---3-----|



Pre-chorus: Guitar 1
eb|-------------------------------------------------------|
Bb|-------------------------------------------------------|
Gb|-------------------------------------------------------|
Db|-----4---4-5-----7---7-8-----------------------------0-|
Ab|-----------------------------8---8-10-------10----10---|
Db|-0-0---0-----0-0---0-----8-8---8------10-10----10------|

Guitar 2: Acoustic
eb|-------------------------------------------------------|
Bb|-------------------------3------------3----------------|
Gb|-2-----------------------0------------0----------------|
Db|-0-----------------------3------------2----------------|
Ab|-0-----------------------1------------3----------------|
Db|-0-----------------------------------------------------|

Guitar 1
eb|-----------------------------------------------------|
Bb|-----------------------------------------------------|
Gb|-----------------------------------------------------|
Db|-----4---4-5-----7---7-8-----10-10-10-10-5-5-5-5-5-5-|
Ab|-------------------------8-8-8--8--8--8--3-3-3-3-3-3-|
Db|-0-0---0-----0-0---0-----8-8-8--8--8--8--3-3-3-3-3-3-|

Guitar 2
eb|-----------------------------------------------------|
Bb|-----------------------------------------------------|
Gb|-2---------------------------------------------------|
Db|-0---------------------------------------------------|
Ab|-0---------------------------------------------------|
Db|-0---------------------------------------------------|



Chorus
eb|-------------------------------------------------|
Bb|-------------------------------------------------|
Gb|-------------------------------------------------|
Db|---------5-7---------7-8---------8-7---------3-5-|  x2
Ab|-5---5-5-5---5---5-5-5---8---8-8-8---3---3-3-3---|
Db|-5---5-5-5---5---5-5-5---8---8-8-8---3---3-3-3---|

eb|-------------------------------|
Bb|-------------------------------|
Gb|-2-------3---7---2-------3-----|
Db|-0-------3---5---0-------3---3-|
Ab|-0-------1---3---0-------1---3-|
Db|-0---------------0-----------3-|



Bridge
eb|-----------|
Bb|-----------|
Gb|-----3-----|
Db|-1---3---3-|  x2
Ab|-1---1---3-|
Db|-1-------3-|

eb|---------------|
Bb|---------------|
Gb|-----8---------|
Db|-5---8---8---3-|  x2               eb|--------|
Ab|-5---6---8---3-|                   Bb|--------|
Db|-5-------8---3-|     played w/     Gb|-10-----|
                        repeating =>  Db|----7-8-|
    eb|-----------|     riff          Ab|--------|
    Bb|-----------|                   Db|--------|
    Gb|-----3-----|
    Db|-1---3---3-|  x2
    Ab|-1---1---3-|
    Db|-1-------3-|


| /  slide up
| \  slide down
| h  hammer-on
| p  pull-off
| ~  vibrato
| +  harmonic
| x  Mute note
===============================================================================
Suggest correction
comments
print report bad tab
guest
You may want to rate the tab now too:
select rating
Wanna post a correction for this tab? Suggest correction