Oops, an error
Loading. Please wait.

Inside Of You Tab

version 1
version 1

Whole song

Interactive

35,415 views 30 this week
12 commentsread comments
1 2 3 4 5
excellent!
x 30
add to favorites
launch autoscroll
font size
0
reset
how to read this tab
guitar tuner
Autoscroll
slow
fast
+/-
esc
set tempo
stop
Help us to improve Ultimate-Guitar.com Take our survey!
×
Contributor
Tuning
jaames 1,154
D A D G B E
Artist : Hoobastank
Song   : Inside Of You
Album  : Every Man For Himself
Tuning : Drop D

Intro/chorus (x1)
E|----------------x-x-5-5-5-5-----x-x-5-5-5-5---------------------x-x-0h1p0-|
B|----------------x-x-6-6-6-6-----x-x-6-6-6-6-----x-x-6-6-6-6-----x-x-3-----|
G|-x--5--x--------x-x-7-7-7-7-----x-x-7-7-7-7-----x-x-5-5-5-5-----x-x-2-----|
D|-x--5--x--5--0---------------0---------------3--x-x-3-3-3-3--7------------|
A|-x--3--x--5--0---------------0---------------3---------------7------------|
D|-x-----x--5--0---------------0---------------3---------------7------------|


E|----x-x-5-5-5-5-----x-x-5-5-5-5-----------------------------0h1p0--|
B|----x-x-6-6-6-6-----x-x-6-6-6-6-----x-x-11-11-11-11---------3------|
G|----x-x-7-7-7-7-----x-x-7-7-7-7-----x-x-10-10-10-10---------2------|
D|-0---------------0---------------8--x-x--8--8--8--8--7--x-x--------|
A|-0---------------0---------------8-------------------7--x-x--------|
D|-0---------------0---------------8-------------------7--x-x--------|


Verse (x4) "It seems so obvious, theres something up with us "
E|---------------------------------------------------|
B|---------------------------------------------------|
G|---------------------------------------------------|
D|---------------------3-3-----3-------0-2-3-2-0-----|
A|-5--------0-3-5--1-1-----1-1---0-2-3---------------|
D|----0-3-5------------------------------------------|


Chorus (x2) "What do I have to do, to get inside of you"
E|----------------x-x-5-5-5-5-----x-x-5-5-5-5---------------------x-x-0h1p0-|
B|----------------x-x-6-6-6-6-----x-x-6-6-6-6-----x-x-6-6-6-6-----x-x-3-----|
G|-x--5--x--------x-x-7-7-7-7-----x-x-7-7-7-7-----x-x-5-5-5-5-----x-x-2-----|
D|-x--5--x--5--0---------------0---------------3--x-x-3-3-3-3--7------------|
A|-x--3--x--5--0---------------0---------------3---------------7------------|
D|-x-----x--5--0---------------0---------------3---------------7------------|


E|----x-x-5-5-5-5-----x-x-5-5-5-5------------------------------0h1p0-|
B|----x-x-6-6-6-6-----x-x-6-6-6-6-----x-x-11-11-11-11----------3-----|
G|----x-x-7-7-7-7-----x-x-7-7-7-7-----x-x-10-10-10-10----------2-----|
D|-0---------------0---------------8--x-x--8--8--8--8--10--x-x-------|
A|-0---------------0---------------8-------------------10--x-x-------|
D|-0---------------0---------------8-------------------10--x-x-------|
                                                     \7's 2nd time/

Solo (x2)
E|-----------------------------------------------------------------------------|
B|-----------------------------------------------------------------------------|
G|-----------------------------------------------------------------------------|
D|-----------------0-10h12p0----------10-----------------0-10h12p0----------10-|
A|------------8h10-----------10h12--0-10------------8h10-----------10h12--0-10-|
D|-12p10h12-0-------------------------10--0-10h12p0-------------------------10-|


E|-------------------------------------------------------------|
B|-------------------------------------------------------------|
G|-------------------------------------------------------------|
D|-------------0-7h8p0--------8--------------0-7h8p0--------10-|
A|-------0-7h8---------7h8--0-8--------0-7h8---------7h8--0-10-|
D|-0-7h8----------------------8--0-7h8----------------------10-|


Filler (x6)
E|--------------------|
B|--------------------|
G|--------------------|
D|--------------------|
A|-5--------0-3-5-3-5-|
D|----0-3-5-----------|

Bridge
E|--------------------------------------------------------|
B|--------------------------------------------------------|
G|--------------------------------------------------------|
D|-0-0---0-0---3-3---7-7---0-0---0-0---8-8---10-10--------|
A|-0-0---0-0---3-3---7-7---0-0---0-0---8-8---10-10--------|
D|-0-0---0-0---3-3---7-7---0-0---0-0---8-8---10-10--------|
Suggest correction new What's this?
You can suggest a correction to this tab. Community and Mods will review your correction and vote to approve or reject it.
comments
print report bad tab
12 comments total. Showing first comments.
0 reply
jaames 1,154 wrote on May 22 2006, 02:28 pm

Let me know of any corrections I should make, I know my verse isn't totally right, and I don't have the solo yet.

0 reply
jaames 1,154 wrote on May 22 2006, 02:58 pm

Just updated the verse, it sounds right now...

0 reply
_A_X_L_ 304 wrote on May 24 2006, 10:05 pm

What about the solo?

guest
You may want to rate the tab now too:
select rating
Please do not post tabs as comments. Select "correction" instead!